Song name
# A B C D E F G H I J K L M N O P Q R S T U V W X Y Z

Streetlight Manifesto - Linoleum tab

----------------------------------------------------------------------------
			                Linoleum - Streetlight Manifesto
----------------------------------------------------------------------------
Tabbed by: Andrew
Email:

Tuning: Standard (EADGBe)

Intro

e|----0-0-x--0-0-x--0-0-x--0-0--|               |----0-0-x--0-0-0|
B|----0-0-x--0-0-x--0-0-x--0-0--|               |----0-0-x--0-0-0|
G|-1--1-1-x--1-1-x--1-1-x--1-1--| x3    End on: |-1--1-1-x--1-1-1|
D|-2--2-2-x--2-2-x--2-2-x--2-2--|               |-2--2-2-x--2-2-2|
A|-2--2-2-x--2-2-x--2-2-x--2-2--|               |-2--2-2-x--2-2-2|
E|-0--0-0-x--0-0-x--0-0-x--0-0--|               |-0--0-0-x--0-0-0|


Verse (Possessions never meant ...) 

 Same Strumming Pattern 

 Emaj, G#maj, C#min, Bmaj, Amaj, Bmaj

e|-0---4---4---7---5---7---|
B|-0---4---5---7---5---7---|
G|-1---5---6---8---6---8---|  x2
D|-2---6---6---9---7---9---|
A|-2---6---4---9---7---9---|
E|-0---4-------7---5---7---|
  

 Emaj, Bmaj, C#min, Amaj         Emaj, G#maj, C#min, Bmaj, Amaj, Bmaj

e|-0---2---4---5---------|      |--0---4---4---7---5---7---|
B|-0---4---5---5---------|      |--0---4---5---7---5---7---|
G|-1---4---6---6---------| then |--1---5---6---8---7---8---|
D|-2---4---6---7---------|      |--2---6---6---9---7---9---|
A|-2---2---4---7---------|      |--2---6---4---9---6---9---|
E|-0-----------5---------|      |--0---4-------7---5---7---|

Chorus (Linoleum, supports my head...)

Emaj, Bmaj, C#min, Amaj

e|-0---2---4---5---|
B|-0---4---5---5---|
G|-1---4---6---6---| x5
D|-2---4---6---7---|
A|-2---2---4---7---|
E|-0-----------5---| 

Solo

e|------------------------------------------------------------|
B|---------------------------------9p7---7-7h9p7---10-9-7-9---|
G|--------9-9/11-9---------------9-----9------------9-9-8-9---|
D|----6-9---------------6-9-9h11------------------------------|
A|-/7----------------/7---------------------------------------|
E|------------------------------------------------------------|

e|----------------------------------------------------------------------|
B|-10-10-10-10-10/9-9------------------------9-9h10p9-9-7-9-----9p7-----|
G|--9--9--9--9--9/9-9--------9------9------9------------------8----9----|
D|----------------------9h11---9h11---9h11------------------------------|
A|----------------------------------------------------------------------|
E|----------------------------------------------------------------------|

e|-----------------------12-12-12-12--12-12--12-12-12-12-12---|
B|--------9-10h9----9-10-12-12-12-12--10-12--12-12-12-12-10---|
G|------9--------11-------------------------------------------|
D|-9h11-------------------------------------------------------|
A|------------------------------------------------------------|
E|------------------------------------------------------------|

e|--------------------------------0----(12)-------(7)----------------------|
B|-----------9---9-7---7-7h9p7------0-------(12)------(7)---9b10r9---7-----|
G|-----------9-------9---------9-----------------------------------9---9---|
D|----6-9h11---------------------------------------------------------------|
A|-/7----------------------------------------------------------------------|
E|-------------------------------------------------------------------------|

e|------------------------------------------|
B|-0-0-17-0-16-0-14-0-12-0-14-0-12-0-10-0---|
G|------------------------------------------|
D|------------------------------------------|
A|------------------------------------------|
E|------------------------------------------|

e|-------------------------------------|
B|-0-0-12-0-10-0-9-0-7-0-9-0-7-0-5-0---|
G|-------------------------------------|
D|-------------------------------------|
A|-------------------------------------|
E|-------------------------------------|

e|-----------------5-0-0-7-0-0-5-0---|
B|-5-0-0-7-0-0-5-0-------------------|
G|-----------------------------------|
D|-----------------------------------|
A|-----------------------------------|
E|-----------------------------------|

e|--9--9--9--9--11-11-11-11--12-12-12-12--14-14-14-14--12~~~~~---|
B|-10-10-10-10--12-12-12-12--12-12-12-12--12-12-12-12--12~~~~~---|
G|---------------------------------------------------------------|
D|---------------------------------------------------------------|
A|---------------------------------------------------------------|
E|---------------------------------------------------------------|

Outro (That's me on the back of the bus...)

e|-0---2---4---5-|          |-0-|
B|-0---4---5---5-|          |-0-|
G|-1---4---6---6-|  End On: |-1-|
D|-2---4---6---7-|          |-2-|
A|-2---2---4---7-|          |-2-|
E|-0-----------5-|          |-0-|

...and that's all she wrote.

************************************

| /   slide up
| \   slide down
| h   hammer-on
| p   pull-off
| ~   vibrato
| +   harmonic
| x   Mute note
| b   Bend
| pb  Pre-bend
| br  Bend release
| pbr Pre-bend release
| brb Bend release bend

************************************
Tap to rate this tab
 
# A B C D E F G H I J K L M N O P Q R S T U V W X Y Z