Streetlight Manifesto - Supernothing tab

-------------------------------------------------------------------------------
			     SUPERNOTHING - Streetlight Manifesto
-------------------------------------------------------------------------------
Tabbed by: John Gabaldon
Email: jvgcool@gmail.com

Tuning: Standard 

  C                                Am              G                F
e|--------------------------0-----|--------------------------3-----|--------1-----3---1-----1----|
B|--------1---1-1-------1-------1-|--------1---1-1-------3---3---3-|--------1---------------1----|
G|--------0---0-0-------0---------|--------2---2-2-----------------|-----------------------------|
D|--------------------------------|--------------------------------|-----------------------------|
A|3---------------2---------------|0-------------------------------|-----------------------------|
E|--------------------------------|----------------3---------------|1----------------------------|


            first time                      second time
  G                                G
e|--------3---------------3-------|--------3-------3---------------|
B|--------3---------------3------*|--------3-------3---------------|
G|--------------------------------|--------------------------------|
D|--------------------------------|--------------------------------|
A|-------------------------------*|--------------------------------|
E|3-------------3-3---3-----------|3-----------3-3-----------------|

  C       Am      F       G
e|8-------5-------8-------10------|
B|8-------5-------10------12------|
G|9-------5-------10------12------|
D|10------7-------10------12------|
A|10------7-------8-------10------|
E|8-------5-----------------------|


C                 Am                          F                      G
He wakes up sad again and he wonders when the rain will end,

C                       Am                            F              G
She acts like she don't care cause to her it's just a game, that he plays,

C                         Am                           F             
I'm a super, I'm a nothing, I'm a no one, goin' nowhere fast,

            G
But I don't care, but I don't care,

C                         Am                           F
I'm a super, I'm a nothing, I'm a no one, goin' nowhere fast,

            G
But I don't care, but I don't care.




C                                  Am
All the times he said he would she never really understood,

F                              G                            C
What he said, or what he meant, I won't forget what wasn't said,

                    Am                   F                 G
He'll find himself alone standing in the rain,

C                         Am                           F             
I'm a super, I'm a nothing, I'm a no one, goin' nowhere fast,

            G
But I don't care, but I don't care,

C                         Am                           F
I'm a super, I'm a nothing, I'm a no one, goin' nowhere fast,

            G
But I don't care, but I don't care.





C                Am                            F                      G
He wakes up sad again and he wonders when the rain will end,

C                        Am                            F              G
She acts like she don't care cause to her it's just a game, that he plays, yeah,

C                         Am                           F             
I'm a super, I'm a nothing, I'm a no one, goin' nowhere fast,

            G
But I don't care, but I don't care,

C                         Am                           F
I'm a super, I'm a nothing, I'm a no one, goin' nowhere fast,

            G
But I don't care, but I don't care.




C                                    Am                              
All the times he said he would she never really understood,

F                                    G                     C          
What he said, or what he meant, I won't forget what wasn't said,

                      Am                    F             G              
He'll find himself alone standing in the rain, 


yeah, yeah, yeah,
                                                                     
C                         Am                           F             
I'm a super, I'm a nothing, I'm a no one, goin' nowhere fast,

            G
But I don't care, but I don't care,

C                         Am                           F
I'm a super, I'm a nothing, I'm a no one, goin' nowhere fast,

            G
But I don't care, but I don't care.
Tap to rate this tab
 
# A B C D E F G H I J K L M N O P Q R S T U V W X Y Z