Song name
# A B C D E F G H I J K L M N O P Q R S T U V W X Y Z

Streetlight Manifesto - The Three Of Us tab

Intro Chords:
F#m            A        E           Bm                                F#m
I will never defend a man who makes amend with any of his enemies friends
       A             E
I will never pretend

Horn Fill        Horn Line
e---------------|-------------------------------------|---------------------------|
b---------------|-------------------------------------|---------------------------|
G-----2-1-------|-------------------------------------|---------------------------|
D-4-4-----2---2-|---4-4-2-4-2-------------------------|---4-4-2-4-2---------------|
A-----------4---|-4-----------4-2---2---4-4-4-4p2-----|-4-----------4-------------|
E---------------|-----------------5---5-----------5-2-|---------------------------|

Play the Horn Fill at the end of the Horn Line
This repeats twice, and then there is this next phrase;

Horn Fill 2:
e--------------------|
b--------------------|
G-------1-1----------|
D---2-------4--------|
A-4---4--------------|
E--------------------|

Then this is played (I have put the two horns into one guitar part):

Horn Line:
e---------------------------------------------------------------------------|
b------------------5---5-7-5------------------------------------------------|
G--------------------6-------6----------------------------------------------|
D-4-4-6-4-2-------------------------4-4-6-4-2-------------------------------|
A-----------4---------------------------------4-----------------------------|
E---------------------------------------------------------------------------|

The next part reflects the "we'll be left, behind" lyric:

Horn Line:
e--------|-----------|------|
b--------|-----------|------|
G--------|-----------|------|
D-2-4----|-2-----4---|------|
A-----4--|---5-4---4-|------|
E--------|-----------|------|

The next part reflects the "It's a long and winding road" section:

Horn Fill:
e-------------|-------------|-----------------------|----------------------13-|
b-------------|-------------|-----------------------|-------------10/9--14----|
G-------------|-------------|-----------------------|-------------------------|
D-4-4-2-4-2---|-/7--6-7-6-4-|-4-2-4-2---2---4-2-0---|-4---4--/7-6-------------|
A-----------4-|-------------|---------4---4-------4-|---4---------------------|
E-------------|-------------|-----------------------|-------------------------|


Rock Break:
e--------------------------------------|
b--------------------------------------|
G--------------------------------------|
D-4-4-----2-4-4-----2-4-4-----2--7-6-5-|
A-----x-2-------x-2-------x-2----------|
E--------------------------------------| x 3

Turnaround:
e--------------------------------------------------------------------------|
b--------------------------------------------------------------------------|
G-4-4-2-4-2----2-2-1-2-1---------------------------------------------------|
D--------------------------4-4-2-4-2---2-3-4-------------------------------|
A--------------------------------------------------------------------------|
E--------------------------------------------------------------------------|

F#m A E Bm x2 lightly
           x2 heavier with a bit of gain

Then you hold the E chord for two bars

CHORUS (Heavier strokes with more emphasis on the deeper strings)
F#m  A  E  Bm | F#m A  F#F#AGF#EF#
F#m  A  E  Bm | F#m A  e-------------------------------------|
                       b-------------------------------------|
                       G-----2-1-----------------------------|
                       D 4-4-----2---------2--/6-6-4---------|
                       A-----------4-----4--4----------------|
                       E-------------------------------------|

Post-Chorus:
F#m A E Bm x2 light
           x2 heavier

This next part is played with ska strokes:

F#m           E                   F#m
They will not protect us (we will fall)
              E
They will not defend us (we'll be-

Em    F#m
Left, behind (we'll be)
Left, behind

Then this next verse is played with ska strokes, emphasis on the higher notes

F#m, E, C#, E x3

And then (this part is probably wrong):
e---------------------------------------------------------------------------|
b---------------17----------------------------------------------------------|
G--14-13--17-16-16----------------------------------------------------------|
D--13-12--16-15-14----------------------------------------------------------|
A--12-11--15-14-------------------------------------------------------------|
E---------------------------------------------------------------------------|

then play the CHORUS again

Breakdown:
e-----------------|-----------------------------|---------------------------|
b-----------------|-----------------------------|---------------------------|
G-----------------|-----4-4-7-7----6-6---4-4----|---4-7---6--4--------------|
D-----------------|-4-4---------9-9---7-7---6-6-|-4-----9---7--6------------|
A---2-5---4--2----|-----------------------------|---------------------------|
E-2-----7--5---4--|-----------------------------|---------------------------|
                 x4                            x4                x4


e--------------------------------0----------------------------------0---------|
b--------------------------------0----------------------------------0---------|
G--------------------------------0----------------------------------0---------|
D-4-4---4-4---(7)---4-4---4-4--------4-4---4-4---(5)---4-4---4-4--------------|
A-4-4---4-4---(7)---4-4---4-4--------4-4---4-4---(5)---4-4---4-4--------------|
E-2-2---2-2---(7)---2-2---2-2--------2-2---2-2---(5)---2-2---2-2--------------|

e-----------------------------------------|-----|
b-----------------------------------------|-----|
G-----------------------------------------|-----|
D-----------------------------------------|-----|
A---2-5---4-----2-5---4-----2-5---4---2---|-----|
E-2-----7---5-2-----7---5-2-----7---5---4-|-x2--|
(you can do these as bar chords)

e---------------------|---|
b---------------------|---|
G---------------------|---|
D---------------------|---|
A---2-5---4---2-------|---|
E-2-----7---5---5-4-5-----|

e--------------------------------------------------------------------|
b--------------------------------------------------------------------|
G----------2---1-1--------------------------2---1-1------------------|
D-4-4--3-4---4-----4-4-2h4-4---0-2--4-4-3h4---4-----4-4-2h4-4---0-2--| 
A-4-4--------------4-4-------4------4-4-------------4-4-------4------| 
E-2-2--------------2-2--------------2-2-------------2-2--------------|

Turnaround:
e--------------------------------------------------------------------------|
b--------------------------------------------------------------------------|
G-4-4-2-4-2----2-2-1-2-1---------------------------------------------------|
D--------------------------4-4-2-4-2---2-3-4-------------------------------|
A--------------------------------------------------------------------------|
E--------------------------------------------------------------------------|

F#m A E Bm x2 lightly
           x2 heavier with a bit of gain

Then you hold the E chord for two bars

F#m A E Bm for four bars with ska strokes

Horn Solo/Breakdown (this part combines two different brass parts):
e-0-2----------------------------------------2-2-5-4-2-0----0---2----|
b---------------------------------------------------------2---2------|
G---------------6-6-2-4p2-------2------------------------------------|
D-----2h4p2h4-------------4p2h4---2h4p2h4----------------------------|
A--------------------------------------------------------------------|
E--------------------------------------------------------------------|

e----------------------------------------2-4-5--9--7-----------------------|
b--------------------------------------------------------------------------|
G----------6-6-2-4p2--------2----------------------------------------------|
D--2h4p2h4-----------4p2-4----2-4-2-4--------------------------------------|
A--------------------------------------------------------------------------|
E--------------------------------------------------------------------------|

Chord fill:
EE F F#m

then play the CHORUS again but play this at the end instead;

That's the whole song, if you have any tips on how to format it better I'd appreciate
it, this is my first tab. Hope you enjoy!
Tap to rate this tab
 
# A B C D E F G H I J K L M N O P Q R S T U V W X Y Z