Song name
# A B C D E F G H I J K L M N O P Q R S T U V W X Y Z

Streetlight Manifesto - Somewhere In The Between Acoustic tab

-------------------------------------------------------------------------------
                             SOMEWHERE IN THE BETWEEN - Streetlight Manifesto
-------------------------------------------------------------------------------
Tabbed by: MustBeSatan
E-mail: mustbesatan@hotmail.com
Tuning: Standard (EADGBe)

The chord tabs on UG are bang on, but none of them actually included the 
intro, which is my favorite part of the song.  Hope this helps someone else
play this fantastic acoustic version of a great song!

INTRO:

e|-------------------------0--0--0--0--1--3p1--------0--0-----3--3-------3--|
B|----1--------0--------1--1--1--1--1--3-------3-----1--1-----3--3-------3--|
G|----0--0-----1--1-----2--2--2--2--2--2-------------2--2-----0--0-------0--|
D|----2--------0--------2-----2--2--2--0----------2--2--------0--0-------0--|
A|-3--------2--------0----------------------------------------2--2--0h2--2--|
E|---------------------------------------------------------3--3--3-------3--|



e|--------------0--0--------------------------0--0h1p0-------0--0--3--||
B|-----1--------0--0-----------------------1--1---------0h1--1--0--3--||
G|-----0--0-----1--1--------------------1--0--0--------------0--0--0--||
D|-----2--------0--0--------7--------5--3--2--2--------------2-----0--||
A|--3--------2--2--2-----7--------5-----3--3--3--------------------2--||
E|-----------0--------5--------3--------1--------------------------3--||


CHORD PROGRESSION:


C   E7   Am    Dm   Am   G

C   E7   Am   G   F    C   G   C   G


As I say, the chord tabs already posted here are great, so check those if 
you need further clarification.  The chords follow the intro throughout the 
song, except for the second verse, which is very similar but the chord 
progression changes to:


E|--0----0----0----3----1----4----0--3-------|
B|--1----0----1----3----1----4----1--3-------|
G|--0----1----2----0----2----5----0--0-------|
D|--2----0----2----0----3----6----2--0-------|
A|--3----2----0----2----3----6----3--2-------|
E|-------0---------3----1----4-------3-------|



************************************

| /   slide up
| \   slide down
| h   hammer-on
| p   pull-off
| ~   vibrato
| +   harmonic
| x   Mute note
| b   Bend
| pb  Pre-bend
| br  Bend release
| pbr Pre-bend release
| brb Bend release bend

************************************
Tap to rate this tab
 
# A B C D E F G H I J K L M N O P Q R S T U V W X Y Z