Song name
# A B C D E F G H I J K L M N O P Q R S T U V W X Y Z

Streetlight Manifesto - Everything Went Numb tab

this is one of the saxaphone parts tabbed for guitar

e--------------------|
b--------------------|
g--------------------|
d--------------------|
a--7--7-7--7-8-7-5-3-|
e--------------------|

e-----------------------------------------|
b-----------------------------------------|
g-----------------------------------------|
d-----------------------------------------|
a--5/7-7-7-8-7-5-7-5-3-5--5/8-8-8-7-5-3-2-|
e-----------------------------------------|

e---------------------------------|
b---------------------------------|
g---------------------------------|
d---------------------------------|
a--0-0--3-2-0-0-0--------0-0-3-2--|
e-----------------3-5-3-----------|

e------------------|
b------------------|
g------------------|
d------------------|
a--4/8-8-8-7-5-3-2-|
e------------------|
Tap to rate this tab
 
# A B C D E F G H I J K L M N O P Q R S T U V W X Y Z