Song name
# A B C D E F G H I J K L M N O P Q R S T U V W X Y Z

Streetlight Manifesto - Failing Flailing tab

Help us improve GuitareTab! Take a short survey!
Band: Streetlight Manifesto
Song: Failing, Flailing
Tabbed by: Horatio

Intro 1x
e--5---0---4---5------5---0---5---4---2---4---5-----------------------------|
b--5---0---6---7------5---0---7---6---4---6---5-----------------------------|
g--6---1---6---7------6---1---7---6---4---6---6-----------------------------|
d--7---2---6---7------7---2---7---6---4---6---7-----------------------------|
a--7---2---4---5------7---2---5---4---2---4---7-----------------------------|
e--5---0--------------5---0-------------------5-----------------------------|

Distroted Part

Play these chords quickly 4x and then for a longer count 2x then finish off on the E5
e---------------------------------------------------------------------------|
b---------------------------------------------------------------------------|
g----------6---7------9-----------------------------------------------------|
d--7---2---6---7------9-----------------------------------------------------|
a--7---2---4---5------7-----------------------------------------------------|
e--5---0--------------------------------------------------------------------|

The first 2 chords are the pickup, and the next four chords are played 4x.  Then finish
on that E
e--5---5------5---7---5---5------7------------------------------------------|
b--6---7------5---9---7---5------9------------------------------------------|
g--6---7------6---9---7---6------9------------------------------------------|
d--6---7------7---9---7---7------9------------------------------------------|
a--4---5------7---7---5---7------7------------------------------------------|
e-------------5-----------5-------------------------------------------------|

When Tomas starts singing, play the first set of chords 2x, and the last set once,
off with the D
e--5---7---5---5------5---7---5---------------------------------------------|
b--5---9---7---5------5---9---7---------------------------------------------|
g--6---9---7---6------6---9---7---------------------------------------------|
d--7---9---7---7------7---9---7---------------------------------------------|
a--7---7---5---7------7---7---5---------------------------------------------|
e--5-----------5------5-----------------------------------------------------|

First set of chords is played 6x, and the second set is done 2x, then the third set 2x,
the last D5 only once on the last time
  {First Set}         {Second Set}           {Third Set}
e---------------------------------------------------------------------------|
b---------------------------------------------------------------------------|
g------9----------------------6---7-6-7--------------6---7------------------|
d--7---9---9---7------7---2---6---7-6-7------7---2---6---7------------------|
a--7---7---9---7------7---2---4---5-4-5------7---2---4---5------------------|
e--5-------7---5------5---0------------------5---0--------------------------|

First set of chords 2x plam muted, Second Set 12x, finish on E

e---------------------5---7---5---5------7----------------------------------|
b---------------------5---9---7---5------9----------------------------------|
g----------6---7------6---9---7---6------9----------------------------------|
d--7---2---6---7------7---9---7---7------9----------------------------------|
a--7---2---4---5------7---7---5---7------7----------------------------------|
e--5---0--------------5-----------5-----------------------------------------|

"Well you say your life's a bore, and I can't quite disagree.  If you judge your life by
pieces of shit that inhabit your TV"

First set 3x, Second set 1x and just beat the hell out of D

e--5---7---5---5------5---7---5---------------------------------------------|
b--5---9---7---5------5---9---7---------------------------------------------|
g--6---9---7---6------6---9---7---------------------------------------------|
d--7---9---7---7------7---9---7---------------------------------------------|
a--7---7---5---7------7---7---5---------------------------------------------|
e--5-----------5------5-----------------------------------------------------|

Distroted Part

First set of chords 4x, Second set 4x
e---------------------------------------------------------------------------|
b---------------------------------------------------------------------------|
g----------6---7--------------4---7-----------------------------------------|
d--7---2---6---7------7---2---4---7-----------------------------------------|
a--7---2---4---5------7---2---2---5-----------------------------------------|
e--5---0--------------5---0-------------------------------------------------|

First set 2x, Second set 2x, hitting the last D5 only once on the last time

e---------------------------------------------------------------------------|
b---------------------------------------------------------------------------|
g----------6---7-6-7--------------6---7-------------------------------------|
d--7---2---6---7-6-7------7---2---6---7-------------------------------------|
a--7---2---4---5-4-5------7---2---4---5-------------------------------------|
e--5---0------------------5---0---------------------------------------------|

First set of chords 2x, Second Set 12x, finish on E

e---------------------5---7---5---5------7----------------------------------|
b---------------------5---9---7---5------9----------------------------------|
g----------6---7------6---9---7---6------9----------------------------------|
d--7---2---6---7------7---9---7---7------9----------------------------------|
a--7---2---4---5------7---7---5---7------7----------------------------------|
e--5---0--------------5-----------5-----------------------------------------|

First set 3x, Second set 1x and just beat the hell out of D

e--5---7---5---5------5---7---5---------------------------------------------|
b--5---9---7---5------5---9---7---------------------------------------------|
g--6---9---7---6------6---9---7---------------------------------------------|
d--7---9---7---7------7---9---7---------------------------------------------|
a--7---7---5---7------7---7---5---------------------------------------------|
e--5-----------5------5-----------------------------------------------------|

"Nothing, you won't say nothing, you won't say nothing, and that's just fine/Take me
to that Date when I went blind I would like to see Your face one last time"

Just play these chords till the end of the song with the appropriate rhthym changes, and
last chord is an A

e--5---7---5---7------5-----------------------------------------------------|
b--5---9---7---9------5-----------------------------------------------------|
g--6---9---7---9------6-----------------------------------------------------|
d--7---9---7---9------7-----------------------------------------------------|
a--7---7---5---7------7-----------------------------------------------------|
e--5------------------5-----------------------------------------------------|

Definitely another amazing Streetlight tune.  If you got a favourite, tab it out cause
aren't enough Streetlight tabs.  Cheers.
Related for Failing Flailing tab