Song name
# A B C D E F G H I J K L M N O P Q R S T U V W X Y Z

Streetlight Manifesto - If And When We Rise tab

If and When We Rise
Streetlight Manifesto
Everything Goes Numb
Transcribed by Vennie
myspace.com/footlongsub

If you find any mistakes or figure out any chords that make it sound
better, leave a comment.

======================
   KEY
======================
*- palm mute
~- play for a while
/ - slide
----------------------


(normal)- play chords normal
(sKa)- strum chords in a sKa rythm
--------------------------------------------------------------


INTRO- The intro is just random stuff. Here's the closest thing I've got

|-0-h13---13----13--13-14-13---13-14-12-13-14-13---12--9--11--8\---14--|
|----------------------------------------------------------------------|
|----------------------------------------------------------------------|
|----------------------------------------------------------------------|
|----------------------------------------------------------------------|
|----------------------------------------------------------------------|

-13-14--13-14-13--11-13--------13----13-------13----13--------------13-|
--------------------------11------11-----11------11------11---11-------|
-----------------------------------------------------------------------|
-----------------------------------------------------------------------|
-----------------------------------------------------------------------|
-----------------------------------------------------------------------|

---13---------------------------------------------------------1-2--1-2-|
-0----------------------------------------------------2-0-2------------|
--------11--10-------10--h11-10--/8---3--/6-p5h6p5h6-------------------|
-----------------8/----------------------------------------------------|
-----------------------------------------------------------------------|
-----------------------------------------------------------------------|

-4-2-2-1-0-1-1-2-1-4-2-1-2--/13-13-13---1-0-1-4-2-1-2--1-0-1-4-2-1-2--|
----------------------------------------------------------------------|
----------------------------------------------------------------------|
----------------------------------------------------------------------|
----------------------------------------------------------------------|
----------------------------------------------------------------------|

-1-0-1-6-4-2-1--1-0-1-4-2-1-2--1-0-1-4-2-1-2--1-0-1-2--1--|
----------------------------------------------------------|
----------------------------------------------------------|
----------------------------------------------------------|
----------------------------------------------------------|
----------------------------------------------------------|

LEAD1
|-------------------------------------------------------------------------|
|-------------------------------------------------------------------------|
|-3-3-3-----------3-3-3-----------3-3-3-----------3-3-3-------------------|
|-3-3-3--4-4-3-3--3-3-3--4-4-3-3--3-3-3--4-4-3-3--3-3-3--4-4-4-3-3-3---x2-|
|-1-1-1--4-4-3-3--1-1-1--4-4-3-3--1-1-1--4-4-3-3--1-1-1--4-4-4-3-3-3------|
|--------2-2-1-1---------2-2-1-1---------2-2-1-1---------2-2-2-1-1-1------|
                         *   *                           * * * * * *

LEADend
|-------|
|-------|
|-3-----|
|-3-----|
|-1-----|
|-------|


(Normal)
e|--5---5---7---5------5---5---7---5-----|
B|--5---6---9---5------5---6---9---5-----|
G|--5---7---7---5------5---7---7---5-----|
D|--7---7---9---7------7---7---9---7-----|
A|--7---5---7---7------7---5---7---7-----|
E|--5-----------5------5-----------5-----|


(SKA)
e|--5---5---3---3---7---5---5---7---5----|
B|--5---6---3---5---9---5---6---9---5----|
G|--5---7---4---5---7---5---7---7---5----|
D|--7---7---5---5---9---7---7---9---7----|
A|--7---5---5---3---7---7---5---7---7----|
E|--5-------3-----------5-----------5----|


(Ska & Normal)
e|--5---5---7---5-------|
B|--6---5---9---5-------|
G|--7---5---7---5-------|
D|--7---7---9---7---x7--|
A|--5---7---7---7-------|
E|------5-------5-------|


(SKA)
e|--5---5---3---3---7---5---5---7---5----|
B|--5---6---3---5---9---5---6---9---5----|
G|--5---7---4---5---7---5---7---7---5----|
D|--7---7---5---5---9---7---7---9---7----|
A|--7---5---5---3---7---7---5---7---7----|
E|--5-------3-----------5-----------5----|


(Ska & Normal)
e|--5---5---7---5-------|
B|--6---5---9---5-------|
G|--7---5---7---5-------|
D|--7---7---9---7---x5--|
A|--5---7---7---7-------|
E|------5-------5-------|


LEAD2
|-/17~~~--19-20--17~~~--12~~~--13~~~--15-13--12~~~--8~~~---|
|----------------------------------------------------------|
|----------------------------------------------------------|
|----------------------------------------------------------|
|----------------------------------------------------------|
|----------------------------------------------------------|

--17~~~--19-20--17~~~--12~~~--12-13-12-13-12---------------|
---------------------------------------------12-13--10~~~--|
-----------------------------------------------------------|
-----------------------------------------------------------|
-----------------------------------------------------------|
-----------------------------------------------------------|


(Normal)
e|--5---5---7---5------5---5---7---5-------|
B|--5---6---9---5------5---6---9---5-------|
G|--5---7---7---5------5---7---7---5-------|
D|--7---7---9---7------7---7---9---7---x2--|
A|--7---5---7---7------7---5---7---7-------|
E|--5-----------5------5-----------5-------|

(Normal)
e|--5---3---1---0---5---0---5--------|
B|--5---3---1---0---6---0---5--------|
G|--5---4---2---1---7---1---5--------|
D|--7---5---3---2---7---2---7--------|
A|--7---5---3---2---5---2---7--------|
E|--5---3---1---0-------0---5--------|


(Ska)
e|--5---5---7---5-------|
B|--5---6---9---5-------|
G|--5---7---7---5-------|
D|--7---7---9---7-------|
A|--7---5---7---7-------|
E|--5-----------5-------|


(Normal)
e|--5---3---1---0---5---0---5--------|
B|--5---3---1---0---6---0---5--------|
G|--5---4---2---1---7---1---5--------|
D|--7---5---3---2---7---2---7--------|
A|--7---5---3---2---5---2---7--------|
E|--5---3---1---0-------0---5--------|


(Ska)
e|--5---5---3---3---0---1---0---5---5----|
B|--5---6---3---5---0---1---0---5---5----|
G|--5---7---4---5---1---2---1---5---5----|
D|--7---7---5---5---2---3---2---7---7----|
A|--7---5---5---3---2---3---2---7---7----|
E|--5-------3-------0---1---0---5---5----|


(Normal)
e|--5---5---0---5-----|
B|--6---5---0---5-----|
G|--7---5---1---5-----|
D|--7---7---0---7-----|
A|--5---7---2---7-----|
E|------5---0---5-----|


(Ska & Normal)
e|--5---5---7---5-------|
B|--6---5---9---5-------|
G|--7---5---7---5-------|
D|--7---7---9---7---x2--|
A|--5---7---7---7-------|
E|------5-------5-------|

~End
Tap to rate this tab
# A B C D E F G H I J K L M N O P Q R S T U V W X Y Z