Song name
# A B C D E F G H I J K L M N O P Q R S T U V W X Y Z

Streetlight Manifesto - We Are The Few tab

-------------------------------------------------------------------------------
		  We Are The Few - Streetlight Manifesto
-------------------------------------------------------------------------------
Tabbed by: Luke Lottes

Tuning: Standard


“Dear Mr. Gepetto…”

 (----palm muted and distorted----)
  |                               |
  V                               V 
e|-----|-----3-3-0-0-1/3------3-3-|-----|
B|-----|-5-5-3-3-1-1-1/3--5-5-3-3-|-----|
G|-----|-5-5-4-4-2-2-2/4--5-5-4-4-|-2---|
D|-3-5-|-5-5-5-5-2-2-3/5--5-5-5-5-|-2-3-|
A|-3-5-|-3-3-5-5-0-0-3/5--3-3-5-5-|-0-3-|
E|-1-3-|-----3-3-----1/3------3-3-|---1-|



PREVERSE/VERSE 

e|---3-0-1-3-|
B|-5-3-1-1-3-|
G|-5-4-2-2-4-|
D|-5-5-2-3-5-|      x2
A|-3-5-0-3-5-|
E|---3---1-3-|


“Well I don’t care if you sink or swim…”

e|-----3-3-0-0-0-0--1---1-3-|
B|-5-5-3-3-1-1-0-0--1-5-1-3-|
G|-5-5-4-4-2-2-0-0--2-5-2-4-|
D|-5-5-5-5-2-2-2-2--3-5-3-5-|
A|-3-3-5-5-0-0-2-2--3-3-3-5-|
E|-----3-3-----0-0--1---1-3-|

PRECHORUS    (not sure about this)
“I’m trying and I’m trying…”

e|-------------|
B|-------------|
G|-5-5-5---5-5-|
D|-5-5-5---5-5-|    x3 (rhythm follows floor tom)
A|-3-3-3---3-3-|
E|-------------|



CHORUS (distorted)
“We are the few…”
e|-----------|
B|-----------|
G|-5---------|
D|-5-5-7-3-5-|
A|-3-5-7-3-5-|    x4 (3rd repeat palm mute, 4th palm mute first 2)
E|---3-5-1-3-|



PLAY PREVERSE/VERSE



“I don’t care if you leave or stay…”

e|-----3-3-0-0-0-0--1---1-3-|
B|-5-5-3-3-1-1-0-0--1-5-1-3-|
G|-5-5-4-4-2-2-0-0--2-5-2-4-|
D|-5-5-5-5-2-2-2-2--3-5-3-5-|   x2
A|-3-3-5-5-0-0-2-2--3-3-3-5-|
E|-----3-3-----0-0--1---1-3-|


PLAY PRECHORUS


PLAY CHORUS


PLAY PREVERSE/VERSE


“This has been the best night of my life…”(clean and quiet)

e|-----------|
B|-----------|
G|-5---------|
D|-5-5-7-3/5-|
A|-3-5-7-3/5-|     x6
E|---3-5-1/3-|



“I could’ve lost my life…” (2nd time)

e|-12--12-10--10-12--8-10-12----13-12-10-10-12-10-8~~~~~~|
B|-13--13-12--12-13--8-12-13-----------------------------|
G|-------------------------------------------------------|
D|-------------------------------------------------------|
A|-------------------------------------------------------|
E|-------------------------------------------------------|



“And as the day fades…”
       (first ending)    (second ending)
                |             |
                V             V    

e|-------3----0-|--1--3-|       |-1/3-|
B|---5---3----1-|--1--3-|       |-1/3-|
G|---5---4----2-|--2--4-|       |-2/4-|
D|--5----5---2--|--3--5-|       |-3/5-|
A|-3----5---0---|--3--5-|       |-3/5-|
E|-----3--------|-1--3--|       |-1/3-|




“Another victim somewhere in a shallow grave…”

e|---3-0-1-3-|
B|-5-3-1-1-3-|
G|-5-4-2-2-4-|
D|-5-5-2-3-5-|      x2 (on repeat cut off last chord)
A|-3-5-0-3-5-|
E|---3---1-3-|



“na na na na na…”

e|-----------|
B|-----------|
G|-5---------|
D|-5-5-7-3-5-|      (repeat until “it’s not your fault!
A|-3-5-7-3-5-|
E|---3-5-1-3-|



“Its not your fault!”

e|-------------------------------------------------------|
B|-------------------------------------------------------|
G|-5-5-5-5-5-----------------------------------5---------|
D|-5-5-5-5-5--5-5-5-5-5--7-7-7-7-7--3-3-3-3-3--5-5-7-3-5-|
A|-3-3-3-3-3--5-5-5-5-5--7-7-7-7-7--3-3-3-3-3--3-5-7-3-5-|
E|------------3-3-3-3-3--5-5-5-5-5--1-1-1-1-1----3-5-1-3-|



PLAY CHORUS x2
(3rd repeat of 2nd chorus play…)

e|-----------|
B|-----------|
G|-5---------|
D|-5-5-7-3/5-|
A|-3-5-7-3/5-|     x2  (clean)
E|---3-5-1/3-|


end on

e|-------------8-|
B|-----------8---|
G|---------9-----|
D|------10-------|
A|---10----------|
E|-8-------------|


| /  slide up
| \  slide down
| h  hammer-on
| p  pull-off
| ~  vibrato
| +  harmonic
| x  Mute note
===============================================================================
Tap to rate this tab
 
# A B C D E F G H I J K L M N O P Q R S T U V W X Y Z