Song name
# A B C D E F G H I J K L M N O P Q R S T U V W X Y Z

Streetlight Manifesto - Kristina She Dont Know I Exist tab

Help us improve GuitareTab! Take a short survey!
Listen to the song for rythyms - the parts do change periodically, especially in the 
sections.

standard tuning

symbols:
* = harmonic
h = hammer on
p = pull off
/ = slide up
\ = slide down


Intro
G Em C D


Verse
G, C, D, G, Em, C, D, G


Chorus
(same as verses 1 and 2)


Solo Chords
(same as intro)

Solo                         *   *   *
e--------------------------|-------------|
B--------------------------|-------------|
G--------------------------|------12-----|
D----------9-h-10-p-9------|--12------7--|
A--10-h-12-------------10--|-------------|
E--------------------------|-------------|


                              *   *   *
e--------------------------|-------------------------|
B--------------------------|------12-----------------|
G--------------------------|--12---------------------|
D----------9-h-10-p-9------|----------7--------------|
A--10-h-12-------------10--|-------------------------|
E--------------------------|-------------------------|


                              *   *   *
e--------------------------|-------------|
B--------------------------|-------------|
G--------------------------|------12-----|
D----------9-h-10-p-9------|--12------7--|
A--10-h-12-------------10--|-------------|
E--------------------------|-------------|


                                  *   *   *
e-------------------------------|--------------------|
B-------------------------------|------12------------|
G-------------------------------|--12------12--------|
D--10-/-12--10--9-h-10-p-9------|--------------------|
A---------------------------10--|--------------------|
E-------------------------------|--------------------|

e----------------|----------------|
B--12--11--12-\--|--12--11--12-\--|
G--12--11--12-\--|--12--11--12-\--|
D----------------|----------------|
A----------------|----------------|
E----------------|----------------|

e--------------10--12--10-------------8--10-----------------|
B--12--11--12--------------12--10--8--8--10-----------------|
G--12-------------------------------------------------------|
D-----------------------------------------------------------|
A-----------------------------------------------------------|
E-----------------------------------------------------------|

e------15--12------------------12--15--12--15--|
B--------------15--12--12--15------------------|
G--12------------------------------------------|
D----------------------------------------------|
A----------------------------------------------|
E----------------------------------------------|

e--15--14--12----------------------------------|
B--------------15--13--12--------------13--15--|
G--------------------------14--12--12--12--14--|
D----------------------------------------------|
A----------------------------------------------|
E----------------------------------------------|


Fill 1
e|-------------------------------------------------------------------------|
B|-12--15-13--13-12-10--10-12--13-12--12-10-10-8-8--12-10--10-8-7--7-8-10-8|
G|-------------------------------------------------------------------------|
D|-------------------------------------------------------------------------|
A|-------------------------------------------------------------------------|
E|-------------------------------------------------------------------------|

Song Order:
Intro x2
Verse x2
Chorus x2
Verse x2
Chorus x2
Solo chords x16
Solo (No rythym guitar)
Solo chords x2
Verse x2 (on acoustic, with Fill 1 second time.)
Chorus x2
Solo chords x2
End on G chord
Related for Kristina She Dont Know I Exist tab