Song name
# A B C D E F G H I J K L M N O P Q R S T U V W X Y Z

Streetlight Manifesto - The Receiving End Of It All tab

----------------------------------------------------------------------------
             "The Receiving End of It All"-Streetlight Manifesto
----------------------------------------------------------------------------
Tabbed by: DMill
Email: DMill325@yahoo.com

Tuning: Eb Ab Db Gb Bb eb

Intro w/ska strumming
e|-2---2-3-2-5-2-3-2-5-2-3-2-5-3-2-|
B|-3---3-3-3-5-3-3-3-5-3-3-3-5-3-2-|
G|-4---4-4-2-6-4-4-2-6-4-4-2-6-4-2-|
D|-4---4-5---7-4-5---7-4-5---7-5-4-|
A|---------------------------------|
E|---------------------------------|

Verse 1 (So Marigold, my love, you've had too much to drink...)
w/ska strumming
e|-2-2-3-5-|
B|-3-3-3-5-|
G|-4-2-4-6-|
D|-4---5-7-| play 4 times
A|---------|
E|---------|

Pre-chorus 1 (She said it hurts too much...) w/ska strumming
e|-2-2-2-2-5-|
B|-2-3-2-3-5-|
G|-2-2-2-2-6-|
D|-4---4---7-|
A|-----------|
E|-----------|

At "And when he left us he said, it's not so bad..." play
e|---------|                          e|-----|
B|---------|                          B|-----|
G|---------|                          G|-----|
D|-9-7-5-7-| play 4 times   finish on D|-7-8-|
A|-9-7-5-5-|                          A|-7-8-|
E|-7-5-3---|                          E|-5-6-|

Chorus 1 (We used to be in love...) w/ska strumming
e|-2-3-2-5-|
B|-3-3-3-5-|
G|-4-4-2-6-|
D|-4-5---7-| play twice
A|---------|
E|---------|

At "Take it back, take it back 'cause you don't know..." play
e|---------|
B|---------|
G|---------|
D|-9-5-7-7-| play 4 times w/4 notes per chord,
A|-9-5-5-7-| then play 4 times, palm muting the first 2 notes of each chord
E|-7-3---5-|

Horn Interlude w/ska strumming
e|-2---2-3-2-5-2-3-2-5-2-3-2-5-3-2-|
B|-3---3-3-3-5-3-3-3-5-3-3-3-5-3-2-|
G|-4---4-4-2-6-4-4-2-6-4-4-2-6-4-2-|
D|-4---4-5---7-4-5---7-4-5---7-5-4-|
A|---------------------------------|
E|---------------------------------|

Verse 2 (So Marigold, someday we'll have to write a script...)
w/ska strumming
e|-2-2-3-5-|
B|-3-3-3-5-|
G|-4-2-4-6-|
D|-4---5-7-| play 4 times
A|---------|
E|---------|

Pre-chorus 2 (She said it hurts too much...) w/ska strumming
e|-2-2-2-2-5-|
B|-2-3-2-3-5-|
G|-2-2-2-2-6-|
D|-4---4---7-|
A|-----------|
E|-----------|

At "And when he left us he said, it's not so bad..." play
e|---------|                          e|-----|
B|---------|                          B|-----|
G|---------|                          G|-----|
D|-9-7-5-7-| play 4 times   finish on D|-7-8-|
A|-9-7-5-5-|                          A|-7-8-|
E|-7-5-3---|                          E|-5-6-|

Chorus 2 (We used to be in love...) w/ska strumming
e|-2-3-2-5-|
B|-3-3-3-5-|
G|-4-4-2-6-|
D|-4-5---7-| play twice
A|---------|
E|---------|

At "Take it back, take it back 'cause you don't know..." play
e|---------|
B|---------|
G|---------|
D|-9-5-7-7-| play 4 times w/4 notes per chord,
A|-9-5-5-7-| then play 4 times, palm muting the first 2 notes of each chord
E|-7-3---5-|

End chorus on
e|---|
B|---|
G|---|
D|-9-|
A|-9-|
E|-7-|

Instrumental Bridge
e|---------------------------------------------------------|
B|-7---7-8-7---7-8-10-8-7-8-7---7-8-7---7-8-10-8-7-5-3-----|
G|-----------------------------------------------------6-4-|
D|---------------------------------------------------------|
A|---------------------------------------------------------|
E|---------------------------------------------------------|

e|---------------------------------------------------------|
B|-------5---7-8---7-5-3---------------------5-7-8-7---8-7-| fade out while
G|-6-7-------------------6-4-6-7-6-4---4-6-7---------------| repeating
D|---------------------------------------------------------| 8-7-8-7
A|---------------------------------------------------------| pattern
E|---------------------------------------------------------|

2nd Guitar during Instrumental Bridge
Arpeggiate these chords 4 times slowly during above part
and repeat 2 more times after above part, playing the last chord staccato
e|-2-2-3-5-|
B|-3-3-3-5-|
G|-4-2-4-6-|
D|-4---5-7-|
A|---------|
E|---------|

After horns build and drums come back in, play
e|-----------------|
B|-----------------|
G|-----------------|
D|-9---5---7---7-8-| play 4 times
A|-9---5---5---7-8-|
E|-7---3-------5-6-|

Chorus 3 (We used to be in love...)
Arpeggiate these chords slowly
e|-2-3-2-5-|
B|-3-3-3-5-|
G|-4-4-2-6-|
D|-4-5---7-| play twice
A|---------|
E|---------|

At "Take it back, take it back 'cause you don't know..." play
e|---------|
B|---------|
G|---------|
D|-9-5-7-7-| play 4 times w/4 notes per chord,
A|-9-5-5-7-| then play 4 times, palm muting the first 2 notes of each chord
E|-7-3---5-|

End song on
e|---|
B|---|
G|---|
D|-9-|
A|-9-|
E|-7-|

============================================================================
Tap to rate this tab
# A B C D E F G H I J K L M N O P Q R S T U V W X Y Z