Song name
# A B C D E F G H I J K L M N O P Q R S T U V W X Y Z

Streets - Irony Of It All tab

Help us improve GuitareTab! Take a short survey!
i know this song doesn't have guitar but i think it sounds good played like this any way    

Terrys rap
e|-----------------------------------------|
B|-----------------------------------------|
G|-----------------------------------------|
D|-----------------------------------------|
A|3-6-8-8-9-3-6-8-8-9-3-6-8-8-9-3-6-8-88-6-|
E|-----------------------------------------|


Tims rap

e|-----------------------------------------|
B|-----------------------------------------|
G|-----5---5-----5---5---------------------|
D|---5---5-----5---5-----------------------|
A|-3---------3-----------------------------|
E|-----------------------------------------|X alot



i'm sure you can work it out :)
cheers
Related for Irony Of It All tab