Song name
# A B C D E F G H I J K L M N O P Q R S T U V W X Y Z

Streets - On The Edge Of A Cliff tab

Tuning:EADGBe, Standard


(4) optional.

e|----(4)(4)--------2--0------------------------------------------------------|
B|------5-5---------3--1------------------------------------------------------|
G|------4-4---------2--0------------------------------------------------------|
D|------2-2---------0--2------------------------------------------------------|
A|---------------------3------------------------------------------------------|
E|----------------------------------------------------------------------------|

this played through whole song except for pre-chorus which is


'I lay right there once at the end of the rock'

e|-----2-2-------------------------------------------------------------|
B|-----3-3-----------(4)(5)--------------------------------------------|
G|-----2-2------------4--5---------------------------------------------|
D|-----0-0------------4--5---------------------------------------------|
A|--------------------2--3---------------------------------------------|
E|---------------------------------------------------------------------|


worked it out, saw no one had done it and decided to tab it. Doubt many people will come 
for it but here it is anyway.

Any corrections : dannyogle@hotmail.com
Tap to rate this tab
# A B C D E F G H I J K L M N O P Q R S T U V W X Y Z