Song name
# A B C D E F G H I J K L M N O P Q R S T U V W X Y Z

Streets - Dry Your Eyes tab

-------------------------------------------------------------------------------
			     DRY YOUR EYES - The Streets
                                 

-------------------------------------------------------------------------------
Tabbed by: Matt Middleton
Email: middleton.matt@hotmail.co.uk

Tuning: Standard (EADGBe)



VERSES & CHORUSES:

GUITAR 1:

e|---------------------------------------------------------------------------|
B|----2----2--------2----2-2--2------2---2------2-2--------------------------|
G|--2--------2----2------2-2----2------2---2----2-2--------------------------|
D|---------------------------------------------------------------------------|
A|---------------------------------------------------------------------------|
E|---------------------------------------------------------------------------|

GUITAR 2:

e|---------------------------------------------------------------------------|
B|--2----x-x-x-x-x-x-x-x-x-x--2--x-x-2---2--x-x-x-x--------------------------|
G|----2--x-x-x-x-x-x-x-x-x-x--2--x-x-2---2--x-x-x-x--------------------------|
D|-------x-x-x-x-x-x-x-x-x-x--0--x-x-0---0--x-x-x-x--------------------------|
A|---------------------------------------------------------------------------|
E|---------------------------------------------------------------------------|


************************************

| x   Mute note

************************************
Tap to rate this tab
 
# A B C D E F G H I J K L M N O P Q R S T U V W X Y Z