Song name
# A B C D E F G H I J K L M N O P Q R S T U V W X Y Z

Streets - Fit But You Know It tab

Tabbed by Dav
Artist: The Streets
Title: Fit but you know it
Instument: guitar

That's what I found playing it in the same time I listened!
If you don't agree, just correct!  


  During the whole song
e:---------------------------------------------------------------|
b:---------------------------------------------------------------|
g:-----------------8---------------------------------------------| 
d:-8-8-8-8-8-8-8-x-8-x-8-8-8-8-8-8-8-----------------------------|
a:-8-8-8-8-8-8-8-x-6-x-8-8-8-8-8-8-8-----------------------------| 
E:-6-6-6-6-6-6-6-x---x-6-6-6-6-6-6-6-----------------------------|

But if you're able to do it quick enough, it seems it's that you better play:

e:---------------------------------------------------------------|
b:---------------------------------------------------------------|
g:-----------------8-6-------------------------------------------| 
d:-8-8-8-8-8-8-8-x-8-6-8-8-8-8-8-8-8-----------------------------|
a:-8-8-8-8-8-8-8-x-6-4-8-8-8-8-8-8-8-----------------------------| 
E:-6-6-6-6-6-6-6-x-----6-6-6-6-6-6-6-----------------------------

But... The first is my favorite... It's easier so u can sing along the song 
you're playing ;-) 

"I'm not tryin' 2 pull u... Eventhou I would like 2... (...)" ENJOY!
*********************************************************************

Let's take a look @ Skarlateens' tabs!
Tap to rate this tab
 
# A B C D E F G H I J K L M N O P Q R S T U V W X Y Z