Song name
# A B C D E F G H I J K L M N O P Q R S T U V W X Y Z

Streets - War Of The Sexes tab

-------------------------------------------------------------------------------
	     War of the Sexes - The Streets, this song is HOT!
-------------------------------------------------------------------------------


Tabbed by: schleichi
Email: lemmyfredericksen@yahoo.de
Tuning- standard

  INTRO, also the MAIN RIFF. Goes the hole song through.(in the background there is another
instrument, you can hardly hear it, its like a banjo or a sitar, and its almost impossible 
hear this second melody. but i think it's the same like the main riff.)

                      3x                  1x
e|----------------------|------------------|
B|----------------------|---11-13----------|
G|----10-9-10-12-13-10--|-13-------13--10--|
D|-10-------------------|------------------|
A|----------------------|------------------|
E|----------------------|------------------|

chords during chorus
e|---------------------------------------------------------------|
B|---------------------------------------------------------------|
G|-----------------------------------------------3---------------|
D|----3--6--3-------3--6--3------3--6--3---------3--6--3---------|
A|----3--6--3-------3--6--3------3--6--3---------1--6--3---------|
E|----1--4--1-------1--4--1------1--4--1------------4--1---------|






"AAAAHHHH"-background at 1:59,
if you have a buddy sitting next to you, to sing it in two voices...
e|----------------------------------------------------|
B|------------------------------------------9~~~~~----|
G|----5~~~5~~~5~~~~5----------5~~~6~~~~9~~~10~~~~-----|
D|----6~~~5~~~4~~~~3~~~~~-----6~~~8~~~10~~~~----------|
A|----------------------------------------------------|
E|----------------------------------------------------|
Tap to rate this tab
# A B C D E F G H I J K L M N O P Q R S T U V W X Y Z