Song name
# A B C D E F G H I J K L M N O P Q R S T U V W X Y Z

Streets - Lets Push Things Forward tab

Bass Part

e|---------------------------------------------------------------------------|
B|---------------------------------------------------------------------------|
G|---1-----------------------------------------------------------------------|
D|--------1------------------------------------------------------------------|
A|----------2----------------------------------------------------------------|
E|------------4--------------------------------------------------------------|

Chords

e|------------------------------------------------------------------------------|
B|------------------------------------------------------------------------------|
G|--11-11-----------------------------------------------------------------------|
D|--11-11-11-11-----------------------------------------------------------------|
A|--13-13-11-11-----------------------------------------------------------------|
E|--------13-13-----------------------------------------------------------------|

Trumpet Part

e|----------3-4-3-0-3-0------------------------------------------------------|
B|--4-4-4-5-------------2-4--------------------------------------------------|
G|---------------------------------------------------------------------------|
D|---------------------------------------------------------------------------|
A|---------------------------------------------------------------------------|
E|---------------------------------------------------------------------------|
Tap to rate this tab
# A B C D E F G H I J K L M N O P Q R S T U V W X Y Z