Song name
# A B C D E F G H I J K L M N O P Q R S T U V W X Y Z

Stress - Libere tab

-------------------------------------------------------------------------------
			    LIBÉRÉ - Stress
-------------------------------------------------------------------------------
Tabbed by: Rafa88offspring
Email: rafa88offspring@hotmail.com

Tuning: Standard (EADgbe)

Here's this song called "Libéré", it's by a band called Stress
from Switzerland, and I tabbed it because a friend asked me to...

Intro

Guitar 1
This repeats through the song
e|--------------------------------------------------------------|
B|------1--------------------------5h6p5-5h6p5-5-5-3-3----------|
G|---------2-----2--------4----------------------------5-5-4-4--|
D|---------------------------5----------------------------------| 
A|----3-------3--------5--------5-------------------------------|
E|-1----------------3-------------------------------------------|

Guitar 2
e|-----------------------------------------------|
B|-13--------------------16^(18)-14----14--------|
G|----14-------14/16-14-------------15----15-15--|
D|-------14/16-----------------------------------|
A|-----------------------------------------------|
E|-----------------------------------------------|


Then the chord progression for the song is F - G - Am

There are other guitar fills with guitar 2 through the song, but they are 
almost improvised, and are very easy to get, using the scale that was 
used in the guitar 2 intro :)


Any suggestions, comments or if you just want to chat add me on MSN
rafa88offspring@hotmail.com

| /  slide up
| \  slide down
| h  hammer-on
| p  pull-off
| ~  vibrato
| +  harmonic
| x  Mute note
===============================================================================
Tap to rate this tab
# A B C D E F G H I J K L M N O P Q R S T U V W X Y Z