Song name
# A B C D E F G H I J K L M N O P Q R S T U V W X Y Z

Stretch Arm Strong - Faces tab

-------------------------------------------------------------------------------
			     SONG NAME - Band Name
-------------------------------------------------------------------------------
Tabbed by: Ray Suhanic-Hazlitt
Email: st12at0cast012@hotmail.com

Tuning: Drop D (e,b,d,g,a,d)

                               Intro

e|---------------------------------------------------------------------------|
B|---------------------------------------------------------------------------|
G|7----7-----------------------------------------------------7-7-7-7-7-7-7---|
D|7-x2-7-x14-7-7-7-7-7-7-7-7-7-7-7-7-5-5-5-5-5-5-5-5-5-5-5-5-7-7-7-7-7-7-7---|
A|5----5-----7-7-7-7-7-7-7-7-7-7-7-7-5-5-5-5-5-5-5-5-5-5-5-5-5-5-5-5-5-5-5---|
d|-----------7-7-7-7-7-7-7-7-7-7-7-7-5-5-5-5-5-5-5-5-5-5-5-5-----------------|
     .         .   .   .   .           .   .   .   .           .   .   .

e|---------------------------------------------------------------------------|
B|---------------------------------------------------------------------------|
G|7-7-7-7-7------------------------------------------------------------------|
D|7-7-7-7-5------------------------------------------------------------------|
A|5-5-5-5-5------------------------------------------------------------------|
d|---------------------------------------------------------------------------|  .
          Same strumming pattern a second time only using these chords
e|---------------------------------------------------------------------------|
B|---------------------------------------------------------------------------|
G|7--------------------------------------------------------------------------|
D|5-7-5-7--------------------------------------------------------------------|
A|5-7-5-7--------------------------------------------------------------------|
d|--7-5-5--------------------------------------------------------------------|
                              End on this
e|---------------------------------------------------------------------------|
B|---------------------------------------------------------------------------|
G|---------------------------------------------------------------------------|
D|0-*------------------------------------------------------------------------|
A|0-*------------------------------------------------------------------------|
d|0-*------------------------------------------------------------------------|
                             Verse 1 x2
e|---------------------------------------------------------------------------|
B|---------------------------------------------------------------------------|
G|---------------7-----------------------------------------------------------|
D|4----7----9----7-x2-9----4-4-4-0-2-5-4-------------------------------------|
A|4-x8-7-x2-9-x8-5----9-x8-4-4-4-0-2-5-4-------------------------------------|
d|4----7----9---------9----4-4-4-0-2-5-4-------------------------------------|           
             . .
                                 Pre-Chorus
e|---------------------------------------------------------------------------|
B|---------------------------------------------------------------------------|
G|--7-6-----7-6-7---12-11-9-7----9-------------------------------------------|
D|4-----7-5-------7---------7-x5-9-7-----------------------------------------|
A|4-------5-------7---------5----7-7-x8--------------------------------------|
d|4-------5-------7----------------7-----------------------------------------|
                                Chorus
e|---------------------------------------------------------------------------|
B|---------------------------------------------------------------------------|
G|7--------------------7----11----7------------------------------------------|
D|7-x8--7----5----0----7-x4-11-x3-7-x8-7----5----7----10---------------------|
A|5-----7-x8-5-x8-0-x5-5----9-----5----7-x8-5-x8-7-x4-10-x4------------------|
d|------7----5----0--------------------7----5----7----10---------------------|
                              Pre-Verse
e|---------------------------------------------------------------------------|
B|---------------------------------------------------------------------------|
G|---------------------------------------------------------------------------|
D|4-4------------------9-9-------------------------4-4-----------------------|
A|4-4-4-5-4-5-4-4h5p4--9-9-9-10--------------------4-4-4-5-4-5-4-4h5p4-------|
d|4-4----------------7-9-9-----12-11-12-12h14p12-7-4-4-----------------7-----|. .                  . .

                           Pre-Verse Continued
e|---------------------------------------------------------------------------|
B|---------------------------------------------------------------------------|
G|---------------------------------------------------------------------------|
D|0----0----2----2-----------------------------------------------------------|
A|0-x3-0-x6-2-x3-2-x6--------------------------------------------------------|
d|0----0----2----2-----------------------------------------------------------|     .

           Guitar one repeats verse, Guitar 2 plays this
e|---------------------------------------------------------------------------|
B|---------------------------------------------------------------------------|
G|7-6-2-9-11-12-11-9-7---------------14-12-11-9-7-11-9-7---------------------|
D|x-x-x-x-x--x--x--x-x-4-4-4-0-2-5-4-x--x--x--x-x-x--x-x-4-4-4-0-2-5-4-------|
A|5-4-0-7-9--10-9--7-5-4-4-4-0-2-5-4-12-10-9--7-5-9--7-5-4-4-4-0-2-5-4-------|
d|---------------------4-4-4-0-2-5-4---------------------4-4-4-0-2-5-4-------|           
         . .                               . .

                                  Pre-Bridge
e|---------------------------------------------------------------------------|
B|7----7----8----8----5----5-------------------------------------------------|
G|-7-7--7-7--7-7--7-7--4-4--4-4--12---14-------------------------------------|
D|-------------------------------12x8-14x8-----------------------------------|
A|-------------------------------10---12-------------------------------------|

                             Bridge Guitar one x4
d|--------5-----------5--10-5------10-5--------------------------------------|
e|---------5-----------5---------------7-3-----------------------------------|
B|----------7-6--------------------------------------------------------------|
G|------------------------------------------6----7---------------------------|
D|------------------------------------------6-x3-7-x4------------------------|
A|------------------------------------------4----5---------------------------|
d|---------------------------------------------------------------------------|

                            Bridge Guitar 2 x4
e|-----------------------------------------------------------------------------|
B|-----------------------------------------------------------------------------|
G|7----7----7----6----7--------------------------------------------------------|
D|7-x2-7-x2-7-x2-6-x3-7-x4-----------------------------------------------------|
A|5----5----5----4----5--------------------------------------------------------|
d|-----------------------------------------------------------------------------|    .    .

                          Verse 2 Guitar One
e|---------------------------------------------------------------------------|
B|---------------------------------------------------------------------------|
G|7-7-----------------------------------------------------7-7-7-7-7-7-7-7-7--|
D|7-7-x14-7-7-7-7-7-7-7-7-7-7-7-7-5-5-5-5-5-5-5-5-5-5-5-5-7-7-7-7-7-7-7-7-7--|
A|5-5-----7-7-7-7-7-7-7-7-7-7-7-7-5-5-5-5-5-5-5-5-5-5-5-5-5-5-5-5-5-5-5-5-5--|
d|--------7-7-7-7-7-7-7-7-7-7-7-7-5-5-5-5-5-5-5-5-5-5-5-5--------------------|  .        
.   .   .   .       . .   . .   . .   . .       .   .   .   .


e|---------------------------------------------------------------------------|
B|---------------------------------------------------------------------------|
G|7-7-7----------------------------------------------------------------------|
D|7-7-7----------------------------------------------------------------------|
A|5-5-5----------------------------------------------------------------------|
d|---------------------------------------------------------------------------|

          Guitar one plays verse 1 first verse while guitar 2 plays this
e|---------------------------------------------------------------------------|
B|8----8-----5----5-----5----------------------------------------------------|
G|-8-8---8-8--6-6---6-6---4-4------------------------------------------------|
D|---------------------------------------------------------------------------|
A|---------------------------------------------------------------------------|
d|---------------------------------------------------------------------------|
           Both guitars play chorus then bridge x2 and end on
e|---------------------------------------------------------------------------|
B|---------------------------------------------------------------------------|
G|---------------------------------------------------------------------------|
D|0--------------------------------------------------------------------------|
A|0--------------------------------------------------------------------------|
d|0--------------------------------------------------------------------------|

| /  slide up
| \  slide down
| h  hammer-on
| p  pull-off
| ~  vibrato
| +  harmonic
| x  Mute note
| .  Palm Mute note
| *  Pick Slide
===============================================================================
Tap to rate this tab
 
# A B C D E F G H I J K L M N O P Q R S T U V W X Y Z