Song name
# A B C D E F G H I J K L M N O P Q R S T U V W X Y Z

Stretch Arm Strong - Black Clouds tab

Help us improve GuitareTab! Take a short survey!
-------------------------------------------------------------------------------
			     Black Clouds - Stretch Arm Strong
-------------------------------------------------------------------------------
Tabbed by:Ray Hazlitt
Email:st12at0cast012@hotmail.com

Tuning:Drop d
                                  Intro
e|---------------------------------------------------------------------------|
B|---------------------------------------------------------------------------|
G|9--10-7--5--9--10-5--4--9--10-7--5--9--------------------------------------|
D|x--x--x--x--x--x--x--x--x--x--x--x--x--5--3--2-----------------------------|
A|7--8--5--3--7--8--3--2--7--8--5--3--7--5--3--2-----------------------------|
d|---------------------------------------5--3--2-----------------------------|
                                Verse x4
e|---------------------------------------------------------------------------|
B|---------------------------------------------------------------------------|
G|5-----------5--------------------------------------------------------------|
D|5--3--5--3--5--5--3--2-----------------------------------------------------|
A|3--3--5--3--3--5--3--2-----------------------------------------------------|
d|---3--5--3-----5--3--2-----------------------------------------------------|
                                   Chorus
e|---------------------------------------------------------------------------|
B|---------------------------------------------------------------------------|
G|------------------------------5--------------------------------------------|
D|3--2--3--2--5--2--3--2--3--2--5--2--3--2--3--2--3--2--3--2--3--2--3--2--3-|
A|3--2--3--2--5--2--3--2--3--2--3--2--3--2--3--2--3--2--3--2--3--2--3--2--3-|
d|3--2--3--2--5--2--3--2--3--2-----2--3--2--3--2--3--2--3--2--3--2--3--2--3--|

e|---------------------------------------------------------------------------|
B|---------------------------------------------------------------------------|
G|---------------------------------------------------------------------------|
D|2--3--2--3--2--3--5-------------------------------------------------------|
A|2--3--2--3--2--3--5-------------------------------------------------------|
d|2--3--2--3--2--3--5-------------------------------------------------------|
                            Bridge Guitar 1 x4
e|---------------------------------------------------------------------------|
B|---------------------------------------------------------------------------|
G|---------------------------------------------------------------------------|
D|-----2-2-2-0-0-0--------------------2-2-2-5-5-5-3-3-3-2-2------------------|
A|3-3-3-----------3-3-3-5-5-2-2--3-3-3---------------------3-3---------------|
d|---------------------------------------------------------------------------|
                           Bridge Guitar 2 x4
e|---------------------------------------------------------------------------|
B|---------------------------------------------------------------------------|
G|---------------------------------------------------------------------------|
D|-2-3-2-5-2-3-2-3-2---------------------------------------------------------|
A|3-----------------3-2-3-2-3-2----------------------------------------------|
d|---------------------------------------------------------------------------|
                             Both Guitars x4 end on 
e|---------------------------------------------------------------------------|
B|---------------------------------------------------------------------------|
G|5--------------------------------------------------------------------------|
D|5--5--2--3-------------------------------------------------5---------------|
A|3--5--2--3-------------------------------------------------5---------------|
d|---5--2--3-------------------------------------------------5---------------|
                             
              Repeat intro and verse and your done


| /  slide up
| \  slide down
| h  hammer-on
| p  pull-off
| ~  vibrato
| +  harmonic
| x  Mute note
===============================================================================
Related for Black Clouds tab