Song name
# A B C D E F G H I J K L M N O P Q R S T U V W X Y Z

Stretch Arm Strong - Sound Of Names Dropping tab

e|-----------------------------------------------|
B|-----------------------------------------------|
G|---------------------------------2-------------|
D|----0-----7----0---0--3----0---3-----0---0--3--| Play this 3 times
A|--5---5-8----3---3-------1---1-----1---1-------|
D|-----------------------------------------------|

Then
e|----------------------------------------|
B|----------------------------------------|
G|----------------------------------------|
D|--0-0000~-0000--0-0000~-x-101010-x-777--|
A|--0-0000~-0000--0-0000~-x-101010-x-777--|
D|--0-0000~-0000--0-0000~-x-101010-x-777--|

e|----------------------------------------------|
B|----------------------------------------------|
G|----------------------------------------------|
D|--0-0000~-0000--0-0000~-x-101010-x-101010-12--|
A|--0-0000~-0000--0-0000~-x-101010-x-101010-12--|
D|--0-0000~-0000--0-0000~-x-101010-x-101010-12--|

First Verse:
Tonight I looked at you...
e|----------------------------------------------|
B|----------------------------------------------|
G|--7-7-x-7-x-7-x-7-x-77--9-9-x-9-x-9-x-9-x-99--|
D|--x-x-x-x-x-x-x-x-x-xx--x-x-x-x-x-x-x-x-x-xx--|
A|--5-5-x-5-x-5-x-5-x-55--7-7-x-7-x-7-x-7-x-77--|
D|----------------------------------------------|

e|---------------------------------------------|
B|---------------------------------------------|
G|--1-1-x-1-x-1-x-1-x-11--5-5-x-5--------------|
D|--x-x-x-x-x-x-x-x-x-xx--x-x-x-x--7-x-7-x-77--| 1s are 10s
A|--8-8-x-8-x-8-x-8-x-88--3-3-x-3--7-x-7-x-77--|
D|---------------------------------7-x-7-x-77--|

Play that twice.
Then
e|------|
B|------|
G|------|
D|--0~--|
A|--0~--|
D|--0~--|

e|------------------------------------------|
B|------------------------------------------|
G|------------------------------------------|
D|--2-00-3-00-2-00-xxxx-0-101010-xx-101010--|
A|--2-00-3-00-2-00-xxxx-0-101010-xx-101010--|
D|--2-00-3-00-2-00-xxxx-0-101010-xx-101010--|

e|-----------------------------------------|
B|-----------------------------------------|
G|----------------------------------1-9-7--| Again, the 1 is a 10
D|--2-00-3-00-2-00-xxxx-0-101010-xx-x-x-x--|
A|--2-00-3-00-2-00-xxxx-0-101010-xx-8-7-5--|
D|--2-00-3-00-2-00-xxxx-0-101010-xx--------|

e|---------------------------------------|
B|---------------------------------------|
G|---------------------------------------|
D|--2-00-3-00-2-00-xxxx-0-101010-xx-777--|
A|--2-00-3-00-2-00-xxxx-0-101010-xx-777--|
D|--2-00-3-00-2-00-xxxx-0-101010-xx-777--|

e|------------------------------------------------------|
B|------------------------------------------------------|
G|------------------------------------------------------|
D|--2-00-3-00-2-00-xxxx-777-888-101010--777-888-101010--|
A|--2-00-3-00-2-00-xxxx-777-888-101010--777-888-101010--|
D|--2-00-3-00-2-00-xxxx-777-888-101010--777-888-101010--|

Other guitar goes
e|----------------------------|
B|----------------------------|
G|----------------------------|
D|--------3-2--------3-2---0--|
A|--0-2-3------0-2-3-----3----|
D|----------------------------|


Chorus:
I tried, you cried...
e|---------------------------------------|
B|---------------------------------------|
G|--7--------10--------5-----------------|
D|--7-(16x)--10-(16x)--5-(16x)--7--------| Play this twice
A|--5---------8--------3--------7-(16x)--|
D|------------------------------7--------|

Other guitar plays
e|-------------------------------------------|
B|-------------------------------------------|
G|-------------------------------------------|
D|--0-(16x)--3-2--------3-2------------------|
A|---------------3-(8x)-----3-(8x)--4-(16x)--|
D|-------------------------------------------|

e|---------------------------------------------------------------|
B|---------------------------------------------------------------|
G|---------------------------------------------------------------|
D|----0-3-2---0-3-2---0---0-3-2---0-3-2---0--5-3-----------------|
A|--3-------3-------3---3-------3-------3--------3-(8x)-4-(16x)--|
D|---------------------------------------------------------------|

Second Verse:
I can't believe...
e|----------------------------------------|
B|----------------------------------------|
G|----------------------------------------|
D|--0-88-33-55535--0-88-1010101010101010--|
A|--0-88-33-55535--0-88-1010101010101010--|
D|--0-88-33-55535--0-88-1010101010101010--|

Play that twice.
Then
e|--------------------------------|
B|--------------------------------|
G|--------------------------------|
D|-0~-8-xx-10-xx--0~-8888/101010--|
A|-0~-8-xx-10-xx--0~-8888/101010--|
D|-0~-8-xx-10-xx--0~-8888/101010--|

Then play the first part twice.
Then
e|-----------------------------------|
B|-----------------------------------|
G|--14-12-10-----------14-12-10------|
D|------------12-(3x)-----------14~--|
A|-----------------------------------|
D|-----------------------------------|

Chorus.
Intro part twice.
First verse twice.

Other guitar plays
e|-------------------------------------|
B|-------------------------------------|
G|--10-9-7-----------12-10-9-----------|
D|---------10--(4x)----------10--(4x)--|
A|-------------------------------------|
D|-------------------------------------|

e|-----------------------------------|
B|-----------------------------------|
G|--14-12-10----10-12-14-10--(2x)----|
D|-----------12----------------------|
A|-----------------------------------|
D|-----------------------------------|

I can't quite figure out the last part of that.
Sorry.

Chorus
Second Verse.

The end.
Any questions/comments/anything else, IM me at hey skateboarder.
Later muh peeps.







Tap to rate this tab
# A B C D E F G H I J K L M N O P Q R S T U V W X Y Z