Song name
# A B C D E F G H I J K L M N O P Q R S T U V W X Y Z

Strike Anywhere - Timebomb Generation tab

-------------------------------------------------------------------------------
			     TIMEBOMB GENERATION - Strike Anywhere
-------------------------------------------------------------------------------
Tabbed by: Jon Brown
Email: 924174156@gsc.edu

Tuning: standard

Intro/verse:
e|---------------------------------------------------------------------------|
B|---------------------------------------------------------------------------|
G|-----------------------10-10-10-10-----------------------------------------|
D|-7-7-7-7--10-10-10-10--10-10-10-10--7-7-7-7--------------------------------|
A|-7-7-7-7--10-10-10-10--8--8--8--8---7-7-7-7--------------------------------|
E|-5-5-5-5--8--8--8--8----------------5-5-5-5--------------------------------|

Chorus:
e|---------------------------------------------------------------------------|
B|---------------------------------------------------------------------------|
G|--9-9-9-9--12-12--------------------7-7--5-5-------------------------------|
D|--9-9-9-9--12-12--10-10---7-7--5-5--7-7--5-5-------------------------------|
A|--7-7-7-7--10-10--10-10---7-7--5-5--5-5--3-3-------------------------------|
E|------------------8--8----5-5--3-3-----------------------------------------|

Bridge:
e|---------------------------------------------------------------------------|
B|---------------------------------------------------------------------------|
G|--2-2-2-2------------5-5-5-5-----------------------------------------------|
D|--2-2-2-2--2-2-2-2---5-5-5-5--5-5-5-5--------------------------------------|
A|--0-0-0-0--2-2-2-2---3-3-3-3--5-5-5-5--------------------------------------|
E|-----------0-0-0-0------------3-3-3-3--------------------------------------|


===============================================================================
Tap to rate this tab
# A B C D E F G H I J K L M N O P Q R S T U V W X Y Z