Guitaretab - guitar tabs
Song name
# A B C D E F G H I J K L M N O P Q R S T U V W X Y Z

Strike Anywhere - Collateral Damage tab

Collateral Damage  Strike Anywhere
Tabbed by Dan McDavid
Tuning: DADGBe

Intro
e|--------------------------|
B|--------------------------|
G|--------------------------|
D|-4~-------------------7-2-|
A|-4~-----pickslide-----7-2-|
D|-4~-------------------7-2-|

Verse				  
e|----------------------------------|------------|----------------|
B|----------------------------------|------------|----------------|
G|----------------------------------|------------|----------------|
D|-7-44444444-7-44444444-7-44444444-|-7777-00-77-|-44-444-444-444-|
A|-7-44444444-7-44444444-7-44444444-|-7777-00-77-|-44-444-444-444-|
D|-7-44444444-7-44444444-7-44444444-|-7777-00-77-|-44-444-444-444-|

Chorus (rhythm) x2
e|---------------------------------------------|
B|---------------------------------------------|
G|---------------------------------------------|
D|-0000-7777-2222-44-22-0000-7777-444744744744-|
A|-0000-7777-2222-44-22-0000-7777-444744744744-|
D|-0000-7777-2222-44-22-0000-7777-444744744744-|

Chorus (lead) x2
e|------------------------------------------------------------|
B|------------------------------------------------------------|
G|--9-6-4-6-9-6------------9-6-4-6-9-6------------------------|
D|-7---7---7---11-11-9-9--7---7---7---7h9-9-7h9-9-7h9-9-7h9-9-|
A|------------------------------------------------------------|
D|------------------------------------------------------------|
[ Tab from: http://www.guitaretab.com/s/strike-anywhere/162010.html ]
Solo x2 (not sure about this AT ALL)
e|-----------------------------------------------------------------------------------|
B|-----------------------------------------------------------------------------------|
G|----14-13-11-------------14-16-14-13-----14-13-11-------------14-14/16-16/18-18/19-|
D|-12----------14-12-11-12-14-14-14-14--12----------14-12-11-12----------------------|
A|-----------------------------------------------------------------------------------|
D|-----------------------------------------------------------------------------------|

Solo (rhythm plays this)
e|-------------------------|---------------------|
B|-------------------------|---------------------|
G|-------------------------|---------------------|
D|-0000-7777-22222222------|-0000-7777-22222222x-|
A|-0000-7777-22222222-(x3)-|-0000-7777-22222222x-|
D|-0000-7777-22222222------|-0000-7777-22222222x-|

Post-chorus 3
e|---------------------|
B|---------------------|
G|---------------------|
D|-4~------------4x-4x-|
A|-4~------------4x-4x-|
D|-4~------------4x-4x-|
             
End Verse	
e|-------------|-------------|-------------|
B|-------------|-------------|-------------|
G|-------------|----------44-|-------------|
D|-44-22-00-22-|-44-77-00-44-|-000x-7-2222-|
A|-44-22-00-22-|-44-77-00-22-|-000x-7-2222-|
D|-44-22-00-22-|-44-77-00----|-000x-7-2222-|

Outro
e|-------------------------------------|
B|-------------------------------------|
G|-------------------------------------|
D|-44x-7-2~----00x-7-2~----44x-7-2~----|
A|-44x-7-2~----00x-7-2~----44x-7-2~----|
D|-44x-7-2~----00x-7-2~----44x-7-2~----|

Not 100%, but close...play it lout and distorted and no one really cares...sweet song, though

Related for Collateral Damage tab