Song name
# A B C D E F G H I J K L M N O P Q R S T U V W X Y Z

Strike Anywhere - Lights Go Out tab

Hi this is my first tab i've ever done.
It's only the firs guitar, if you want to or know the second guitar feel free to add it :)
Amazing band, amazing song, amazing lyrics.
Greetings from Mexico. Saludos amigos
Hector Sanchez 
Go Vegan!


INTRO

e|-----------------------------------------|
B|-----------------------------------------|
G|------------------8-------------8~-------|
D|-5~---------------8-(x6)--5~----8~-------|
A|-5~--(big slide)--6-------5~----6~-------|
E|-3~-----------------------3~-------------|


VERSE

e|---------------------------------------------------|
B|---------------------------------------------------|
G|----------------8-----------------------------8----|
D|-3/5555---------8-(x6)---3/5555-------------8--8---|   (X2)
A|-3/5555---(x3)--6--------3/5555---(x3)----6--------|
E|-1/3333------------------1/3333-----------.--------|

...an international war and we're buying the voice...


CHORUS

e|-----------------------------------------|
B|-----------------------------------------|
G|-----------------------------------------|
D|-8--------3--------5--------3------------| (X2)
A|-8 (x16)--3-(x16)--5-(x16)--3-(x16)------|
E|-6--------1--------3--------1------------|
...will we fall will we fight... 


POST CHORUS

e|-----------------------------------------|
B|-----------------------------------------|
G|-------------8----------------------8----|
D|-3/5---------8-(x6)---3/5-----------8----|   (X2)
A|-3/5---(x3)--6--------3/5---(x3)----6----|
E|-1/3------------------1/3----------------|
...BLACKOUT i don't wanna fight...


VERSE

e|---------------------------------------------------|
B|---------------------------------------------------|
G|----------------8-----------------------------8----|
D|-3/5555---------8-(x6)---3/5555-------------8--8---|   (X2)
A|-3/5555---(x3)--6--------3/5555---(x3)----6--------|
E|-1/3333------------------1/3333--------------------|
...there are no saints, there are no patriots, designer...

CHORUS

e|-----------------------------------------|
B|-----------------------------------------|
G|-----------------------------------------|
D|-8--------3--------5--------3------------| (X2)
A|-8 (x16)--3-(x16)--5-(x16)--3-(x16)------|
E|-6--------1--------3--------1------------|
...will we fall will we fight... 



POST CHORUS

e|-----------------------------------------|
B|-----------------------------------------|
G|-------------8----------------------8----|
D|-3/5---------8-(x6)---3/5-----------8----|   (X2)
A|-3/5---(x3)--6--------3/5---(x3)----6----|      
E|-1/3------------------1/3----------------|     
...BLACKOUT i don't wanna fight...



(on the second time you go like this) D|--8--8--5-----|
                                      A|--6--8--5-----|
                                      E|-----6--3-----|
                                         HERE WE GO!


BRIDGE 

e|------------------------------------------------|
B|------------------------------------------------|
G|---------7-------8---------------10-------------|
D|-5-------7-(x8)--8-(x4)--8-------8-(x6)--3/-----|   (X2)
A|-5-(x8)--5-------6-------8-(x4)--8-------3/-----|
E|-3-----------------------6---------------1/-----|
...HERE WE GO! ...


e|---------------------------------------------------|
B|---------------------------------------------------|
G|-------------7-------8---------------10------------|
D|-5------5/---7-(x8)--8-(x4)--8-------8-(x6)--3-----|   (X2)
A|-5-(x8)-5/---5-------6-------8-(x4)--8-------3-----|
E|-3------3/-------------------6---------------1-----|
   .           .       .       .       .
...there are no saints, there are no patriots...
(second time the last 4 chords aren't palm mute)

e|----------------------------------------------|
B|----------------------------------------------|
G|---------7-------8---------------10-----------|
D|-5-------7-(x8)--8-(x4)--8-------8-(x6)-------|   (X2)
A|-5-(x8)--5-------6-------8-(x4)--8------------|
E|-3-----------------------6--------------------|
...will we fall will we fight...

e|------------------------|
B|------------------------|
G|------------------------|
D|-5~-----------------5---| 
A|-5~--(big slide)----5---|
E|-3~-----------------3---|


DONE! 
Tap to rate this tab
# A B C D E F G H I J K L M N O P Q R S T U V W X Y Z