Song name
# A B C D E F G H I J K L M N O P Q R S T U V W X Y Z

Strike Anywhere - Hollywood Cemetery Acoustic tab

Strike Anywhere
Hollywood Cemetery
Tabbed by Josh
Standard Tunning

Intro
e|-----------------------------------------|
B|-----------------------------------------|
G|----------9-9-9--------10-10-10-9-9-10-9-|  4X'S
D|-10-10-10-9-9-9--7-7-7-10-10-10-9-9-10-9-|
A|-10-10-10-7-7-7--7-7-7-8--8--8--7-7-8--7-|
E|-8--8--8---------5-5-5-------------------|

VERSE
e|---------------------|
B|---------------------|
G|-9-X-X-9-X-X-9-X-X---|
D|-9-X-X-9-X-X-9-X-X---|
A|-7-X-X-7-X-X-7-X-X---|
E|---------------------|
You were there down by the water on that ambush night

e|------------------------|
B|------------------------|
G|------------------------|
D|-10-X-X-10-X-X----------|
A|-10-X-X-10-X-X----------|
E|-8--X-X-8--X-X----------|
when all the 'CRASS' punks refused to fight

e|-----------------------|
B|-----------------------|
G|-9-X-X-9-X-X-9-X-X-----|
D|-9-X-X-9-X-X-9-X-X-----|
A|-7-X-X-7-X-X-7-X-X-----|
E|-----------------------|
Instead too many tithed into the shooting star

e|----------------------------------------------|
B|----------------------------------------------|
G|-7-7-7-7-7-7-7-7------------------------------|
D|-7-7-7-7-7-7-7-7-------------10-10-10-10------|
A|-5-5-5-5-5-5-5-5-------------10-10-10-10------|
E|-----------------------------8--8--8--8-------|
trading their lives in for the glamour of tar

CHORUS
e|-------------------------------------------------|
B|-------------------------------------------------|
G|-9-9-9-9-7-7-7-7---------------------------------|
D|-9-9-9-9-7-7-7-7-10-10-10-10-10-10-10-10---------| 2X'S
A|-7-7-7-7-5-5-5-5-10-10-10-10-10-10-10-10---------|
E|-----------------8--8--8--8--8--8--8--8----------|
When I found out all my heroes are just parasites
where are the good people compromised by the war we call survival

VERSE 1X
Get Out Get Out Get Out and get away
there's no one left who can make you stay
the city's making money barricading the view
polluting our homes and suffocating you

CHORUS 2X'S
When I found out all my heroes are just parasites
where are the good people compromised by the road we have to follow

INTRO 4X'S

END WITH
e|----|
B|----|
G|----|
D|-10-|
A|-10-|
E|-8--|



| x  Mute note
===============================================================================
Tap to rate this tab
# A B C D E F G H I J K L M N O P Q R S T U V W X Y Z