Song name
# A B C D E F G H I J K L M N O P Q R S T U V W X Y Z

Strike Anywhere - Amplify Blaze tab

Okay. I got this off Guitar Pro 5. So i believe it\'s right. My first tab. don\'t be 
This is Guitar 2.


E --------------------------|
A --------------------------|
D ------------------------6-|
G ------------------------X-|
B -----------------4--4---4-|
E
                    P.M

    (Guitar Slide type thing)
E --------------------------------------------------------------------------|
A --------------------------------------------------------------------------|
D --------------------------------------------------------------------------|
G -30-29-28-27-26-25-24-23-22-21-20-19-18-17-16-15-14-13-12-11-10-9-8-7-6-5-|
B -30-29-28-27-26-25-24-23-22-21-20-19-18-17-16-15-14-13-12-11-10-9-8-7-6-5-|
E --------------------------------------------------------------------------|

E --------------------------------------------------------------------------|
A --------------------------------------------------------------------------|
D -------------6-6-6-------------4-4-4-9-9-9-9-9-9-9-9-9-9-9-9-9--4-4-4-----|
G -4-3-2-1-0---6-6-6-2-2-2-2-2---4-4-4-9-9-9-9-9-9-9-9-9-9-9-9-9--4-4-4-----|
B -4-3-2-1-0---4-4-4-2-2-2-2-2---2-2-2-7-7-7-7-7-6-6-6-7-7-7-7-7--2-2-2-----|
E -------------------0-0-0-0-0----------------------------------------------|

E ---------------------------------------------------------------------------|
A ---------------------------------------------------------------------------|
D -------6-------6-----------------------------------------------------------|
G -------6-------6-----------------------------------------------------------|
B -4-4-4-4---4-4-4-------------2-2-2-7-7-7-7-7--------7-7-7-7-7-2-2-2-4-4-4--|
E ------------------0-0-0-0-0-------------------7-7-7------------------------|
   PM---     PM--   PM-------------------------------------------------------|

E --------------------------------------------------------------------------|
A --------------------------------------------------------------------------|
D --6--------6------------------------------------------------------------6-|
G --6--------6------------------------------------------------------------6-|
B --4--4-4-4-6-------------2-2-2-7-7-7-7-7-------7-7-7-7-7---2-2-2--4-4-4-4-|
E --------------0-0-0-0-0------------------7-7-7----------------------------|
       PM---    PM----------------------------------------------------------|
Tap to rate this tab
 
# A B C D E F G H I J K L M N O P Q R S T U V W X Y Z