Song name
# A B C D E F G H I J K L M N O P Q R S T U V W X Y Z

Strike Anywhere - We Amplifyblaze tab

-------------------------------------------------------------------------------
			     We Amplify - Strike Anywhere
-------------------------------------------------------------------------------
Tabbed by: Adam Lenning
Email: a_wilhelm_scream@hotmail.com

Tuning: Standard

Guitar 1 is on top. Guitar 2 is at the bottom.


Guitar 1

Intro:
e|-444-44444-222-00000-222-00000-0-222-0-00000--|
B|-222-00000-000-00000-444/55555-0-000-0-22222--|
G|----------------------------------------------|
D|----------------------------------------------| x4
A|----------------------------------------------|
E|----------------------------------------------|

Break - Only Guitar 2 Plays

Intro: (0:39)
e|-444-44444-222-00000-222-00000-0-222-0-00000--|
B|-222-00000-000-00000-444/55555-0-000-0-22222--|
G|----------------------------------------------|
D|----------------------------------------------|
A|----------------------------------------------|
E|----------------------------------------------|

e|-444-44444-222-00200-222-00000--|
B|-222-00000-000-00000-444/55550--|
G|--------------------------------|
D|--------------------------------|
A|--------------------------------|
E|--------------------------------|
(0:51)
e|-----|
B|-----|
G|-6~--|
D|-6~--|
A|-4~--|
E|-----|

\\\\\\\\\\\\\\\\\\\\\\\\\\\\\\\\PICK SLIDE\\\\\\\\\\\\\\\\\\\\\\\\\\\\\\\\\\
(0:55)
e|-----|
B|-----|
G|-6~--|
D|-6~--|
A|-4~--|
E|-----|
(0:58)
e|-----|
B|-----|
G|-6~--|
D|-6~--|
A|-4~--|
E|-----|

\\\\\\\\\\\\\\\\\\\\\\\\\\\\\\\\PICK SLIDE\\\\\\\\\\\\\\\\\\\\\\\\\\\\\\\\\\
(1:01)
e|-----|
B|-----|
G|-6~--|
D|-6~--|
A|-4~--|
E|-----|

End: (1:04)
e|---------------|
B|---------------|
G|-6666----------|
D|-6666-6/7\6\4--|
A|-4444-0--------|
E|-xxxx----------|

===============================================================================

Guitar 2

Intro (0:09)
e|--------|
B|--------|
G|-66-6~--|
D|-66-x~--|
A|-44-4~--|
E|-xx-----|

\\\\\\\\\\\\\\\\\\\\\\\\\\\\\\\\PICK SLIDE\\\\\\\\\\\\\\\\\\\\\\\\\\\\\\\\\\

Verse 1: (0:13)
e|------------------------------------------|
B|------------------------------------------|
G|-666-------444-99999-999-99999-444-66666--|
D|-666-22222-444-99999-999-99999-444-66666--|
A|-444-22222-222-77777-666-77777-222-44444--|
E|-----00000--------------------------------|

e|------------------------------------------|
B|------------------------------------------|
G|-666-------444-99999-999-99999-444-66666--|
D|-666-22222-444-99999-999-99999-444-66666--|
A|-444-22222-222-77777-666-77777-222-44444--|
E|-----00000-------------------------xxxx---|

Verse 2: (0:26)
e|------------------------------------------|
B|------------------------------------------|
G|-666-------444-99999-999-99999-444-66666--|
D|-666-22222-444-99999-999-99999-444-66666--| x2
A|-444-22222-222-77777-666-77777-222-44444--|
E|-xx--00000-xxx-xxxxx-xxx-xxxxx-xxx-xxxx---|
       xxxxx

(0:38)
e|-----|
B|-----|
G|-6~--|
D|-6~--|
A|-4~--|
E|-----|

\\\\\\\\\\\\\\\\\\\\\\\\\\\\\\\\PICK SLIDE\\\\\\\\\\\\\\\\\\\\\\\\\\\\\\\\\\

(0:45)
e|-----|
B|-----|
G|-6~--|
D|-6~--|
A|-4~--|
E|-----|

\\\\\\\\\\\\\\\\\\\\\\\\\\\\\\\\PICK SLIDE\\\\\\\\\\\\\\\\\\\\\\\\\\\\\\\\\\

(0:50)
e|----------------|
B|----------------|
G|-2----4-4/6-6~--|
D|-2-22-4-4/6-6~--|
A|-0-22-2-2/4-4~--|
E|---00-----------|
     xx

(0:56)
e|----------------|
B|----------------|
G|-2----4-4/6-6~--|
D|-2-22-4-4/6-6~--|
A|-0-22-2-2/4-4~--|
E|---00-----------|
     xx

End: (1:03)
e|------------------|
B|------------------|
G|-2----4-4/6-6666--|
D|-2-22-4-4/6-6666--|
A|-0-22-2-2/4-4444--|
E|---00-------xxxx--|
     xx

| /  slide up
| \  slide down
| h  hammer-on
| p  pull-off
| ~  let ring
| +  harmonic
| x  Mute chord
===============================================================================
Tap to rate this tab
# A B C D E F G H I J K L M N O P Q R S T U V W X Y Z