Song name
# A B C D E F G H I J K L M N O P Q R S T U V W X Y Z

Strike Anywhere - Instinct tab

Strike Anywhere – Instinct
Tabbed by: Dan McDavid

Yeah, again NO ONE had this tab, so I had to go and kinda figure it out on my own
This is how my band plays it

Intro x4			guitar 2 (let ring throughout)
e|--------------------|	|-------------------|
B|--------------------|	|-------------------|
G|-7777-----7777-7777-|	|-19~---------------|
D|-7777-777-7777-5555-|	|--x----------------|
A|-5555-777-5555------|	|-17~---------------|
E|------555-----------|	|-------------------|

Verse (muted) x2			strumming x1
e|--------------------------------|------------------------------------------|
B|--------------------------------|------------------------------------------|
G|-------------------------77-777-|----------------7777----------------77----|
D|-99-999-977-777-755-555-577-777-|-9999-7777-5555-7777-9999-7777-5555-77-77-|
A|-99-999-977-777-755-555-555-555-|-9999-7777-5555-5555-9999-7777-5555-55-77-|
E|-77-777-755-555-533-333-3-------|-7777-5555-3333------7777-5555-3333----55-|

Chorus part 1 x2
e|-------------------------------------|
B|-------------------------------------|
G|-------------------77777777----------|
D|-99999999-77777777-77777777-55555555-|
A|-99999999-77777777-55555555-55555555-|
E|-77777777-55555555----------33333333-|
   We go... We go... We go    the night...

Chorus part 2
e|----------------------------------------------------------------------------------|
B|----------------------------------------------------------------------------------|
G|-------------------77777777-1414-1212-1111111111111111----------77777777----------|
D|-99999999-77777777-77777777--x-x--x-x--x-x-x-x-x-x-x-x-77777777-77777777-55555555-|
A|-99999999-77777777-55555555-1212-1010--9-9-9-9-9-9-9-9-77777777-55555555-55555555-|
E|-77777777-55555555-------------------------------------55555555----------33333333-|
  So I’ll...words...for you...all this time  we may never sing...just here…a light…

Bridge part 1 x4
e|--------------------------------------------|
B|--------------------------------------------|
G|-----------------------------77777777777777-|
D|-99999x----------------------77777777777777-|
A|-99999x----------------------55555555555555-|
E|-77777x-------------------------------------|
          This violence passes for an apology

Bridge part 2 x3
e|--------------------|-------------------------------------------|
B|--------------------|-------------------------------------------|
G|----------7777------|-------------------------------------------|
D|-99999999-7777-7777-|-7~----------------------------------------|
A|-99999999-5555-7777-|-7~----------------------------------------|
E|-77777777------5555-|-5~----------------------------------------|
			  How do we guard the door against your dad

Last Chorus part 2
e|----------------------------------------------------------------------------------|
B|----------------------------------------------------------------------------------|
G|-------------------77777777-1414-1212-1111111111111111----------77777777----------|
D|-99999999-77777777-77777777--x-x--x-x--x-x-x-x-x-x-x-x-77777777-77777777-5~-------|
A|-99999999-77777777-55555555-1212-1010--9-9-9-9-9-9-9-9-77777777-55555555-5~-------|
E|-77777777-55555555-------------------------------------55555555----------3~-------|
  So I’ll...words...for you...all this time  we may never sing...just here…a light…

Yeah, so the second guitar does other tish that you can figure out yourself...sounds easy enough

Great song by a great band.

Tap to rate this tab
# A B C D E F G H I J K L M N O P Q R S T U V W X Y Z