Song name
# A B C D E F G H I J K L M N O P Q R S T U V W X Y Z

Striker - Full Speed Or No Speed tab

www.striker-metal.com
Title: Full Speed or No Speed
Artist: Striker
Album: Eyes in the Night
Copyright: Striker
Tabber: Tim Brown
Tempo = 140
Rhythm Guitar

Legend
L - tied note
x - dead note
h - hammer on/pull off
b - bend
s - slide
~ - vibrato
g - ghost note
> - accentuated note
t - trill
M - palm mute
. - staccato
P - popping (bass)
S - slapping (bass)
+ - tapping
W - wide vibrato
< - fade in
w - whammy bar
= - tremolo picking
v - brush up
^ - brush down
V - pick stroke up
n - pick stroke down


D |----------------------------------------------------|
A |----------------------------------------------------|
F |--9-------------------------------------------------|
C |--9--------------------------------7h-5-------------|
G |--7-----------------------7h-5--------------7h-5----|
D |--------0M-0M-0M-0M-0M-0M-------0M-------0M---------|


----------------------------------------------------|
----------------------------------------------------|
-----------------------------------7L-------7-------|
--9--------------------------------7L-------7-------|
--7-----------------------7--5-----5L-------5-------|
--------0M-0M-0M-0M-0M-0M-------0M------------------|


----------------------------------------------------|
----------------------------------------------------|
--9-------------------------------------------------|
--9--------------------------------7h-5-------------|
--7-----------------------7h-5--------------7h-5----|
--------0M-0M-0M-0M-0M-0M-------0M-------0M---------|


----------------------------------------------------|
----------------------------------------------------|
-----------------------------------7L-------7-------|
--9--------------------------------7L-------7-------|
--7-----------------------7--5-----5L-------5-------|
--------0M-0M-0M-0M-0M-0M-------0M------------------|


----------------------------------------------------|
----------------------------------------------------|
--9-------------------------------------------------|
--9--------------------------------7h-5-------------|
--7-----------------------7h-5--------------7h-5----|
--------0M-0M-0M-0M-0M-0M-------0M-------0M---------|


----------------------------------------------------|
----------------------------------------------------|
-----------------------------------7L-------7-------|
--9--------------------------------7L-------7-------|
--7-----------------------7--5-----5L-------5-------|
--------0M-0M-0M-0M-0M-0M-------0M------------------|


----------------------------------------------------|
----------------------------------------------------|
--9-------------------------------------------------|
--9--------------------------------7h-5-------------|
--7-----------------------7h-5--------------7h-5----|
--------0M-0M-0M-0M-0M-0M-------0M-------0M---------|


----------------------------------------------------|
----------------------------------------------------|
-----------------------------------7L-------7-------|
--9--------------------------------7L-------7-------|
--7-----------------------7--5-----5L-------5-------|
--------0M-0M-0M-0M-0M-0M-------0M------------------|


----------------------------------------------------|
----------------------------------------------------|
--9-------------------------------------------------|
--9--------------------------------7h-5-------------|
--7-----------------------7h-5--------------7h-5----|
--------0M-0M-0M-0M-0M-0M-------0M-------0M---------|


----------------------------------------------------|
----------------------------------------------------|
-----------------------------------7L-------7-------|
--9--------------------------------7L-------7-------|
--7-----------------------7--5-----5L-------5-------|
--------0M-0M-0M-0M-0M-0M-------0M------------------|


----------------------------------------------------|
----------------------------------------------------|
--9-------------------------------------------------|
--9--------------------------------7h-5-------------|
--7-----------------------7h-5--------------7h-5----|
--------0M-0M-0M-0M-0M-0M-------0M-------0M---------|


----------------------------------------------------|
----------------------------------------------------|
-----------------------------------7L-------7-------|
--9--------------------------------7L-------7-------|
--7-----------------------7--5-----5L-------5-------|
--------0M-0M-0M-0M-0M-0M-------0M------------------|


----------------------------------------------------|
----------------------------------------------------|
----------------------------------------------------|
--9-------------------------------------------------|
--7-------------------------------------------------|
--------0M-0M-0M-0M-0M-0M-0M-0M-0M-0M-0M-0M-0M-0M---|


----------------------------------------------------|
----------------------------------------------------|
----------------------------------------------------|
----------------------------------------------------|
--------------------------7~------------------------|
--0M-0M-0M-0M-0M-0M-0M-0M---------------------------|


----------------------------------------------------|
----------------------------------------------------|
--9-------------------------------------------------|
--9--------------------------------7h-5-------------|
--7-----------------------7h-5--------------7h-5----|
--------0M-0M-0M-0M-0M-0M-------0M-------0M---------|


----------------------------------------------------|
----------------------------------------------------|
-----------------------------------7L-------7-------|
--9--------------------------------7L-------7-------|
--7-----------------------7--5-----5L-------5-------|
--------0M-0M-0M-0M-0M-0M-------0M------------------|


----------------------------------------------------|
----------------------------------------------------|
--9-------------------------------------------------|
--9--------------------------------7h-5-------------|
--7-----------------------7h-5--------------7h-5----|
--------0M-0M-0M-0M-0M-0M-------0M-------0M---------|


----------------------------------------------------|
----------------------------------------------------|
-----------------------------------7L-------7-------|
--9--------------------------------7L-------7-------|
--7-----------------------7--5-----5L-------5-------|
--------0M-0M-0M-0M-0M-0M-------0M------------------|


----------------------------------------------------|
----------------------------------------------------|
--9-------------------------------------------------|
--9--------------------------------7h-5-------------|
--7-----------------------7h-5--------------7h-5----|
--------0M-0M-0M-0M-0M-0M-------0M-------0M---------|


----------------------------------------------------|
----------------------------------------------------|
-----------------------------------7L-------7-------|
--9--------------------------------7L-------7-------|
--7-----------------------7--5-----5L-------5-------|
--------0M-0M-0M-0M-0M-0M-------0M------------------|


----------------------------------------------------|
----------------------------------------------------|
--9-------------------------------------------------|
--9--------------------------------7h-5-------------|
--7-----------------------7h-5--------------7h-5----|
--------0M-0M-0M-0M-0M-0M-------0M-------0M---------|


----------------------------------------------------|
----------------------------------------------------|
-----------------------------------7L-------7-------|
--9--------------------------------7L-------7-------|
--7-----------------------7--5-----5L-------5-------|
--------0M-0M-0M-0M-0M-0M-------0M------------------|


----------------------------------------------------|
----------------------------------------------------|
--5-------------------------------------------------|
--5-------------------------------------------------|
--3-----3M-3M-3M-3M-3M-3M-3M-3M-3M-3M-3M-3M-3M-3M---|
----------------------------------------------------|


----------------------------------------------------|
----------------------------------------------------|
--7-------------------------------------------------|
--7-------------------------------------------------|
--5-----5M-5M-5M-5M-5M-5M-5M-5M-5M-5M-5M-5M-5M-5M---|
----------------------------------------------------|


----------------------------------------------------|
----------------------------------------------------|
--9-------------------------------------------------|
--9--------------------------------7h-5-------------|
--7-----------------------7h-5--------------7h-5----|
--------0M-0M-0M-0M-0M-0M-------0M-------0M---------|


----------------------------------------------------|
----------------------------------------------------|
-----------------------------------7L-------7-------|
--9--------------------------------7L-------7-------|
--7-----------------------7--5-----5L-------5-------|
--------0M-0M-0M-0M-0M-0M-------0M------------------|


----------------------------------------------------|
----------------------------------------------------|
--5-------------------------------------------------|
--5-------------------------------------------------|
--3-----3M-3M-3M-3M-3M-3M-3M-3M-3M-3M-3M-3M-3M-3M---|
----------------------------------------------------|


----------------------------------------------------|
----------------------------------------------------|
--7-------------------------------------------------|
--7-------------------------------------------------|
--5-----5M-5M-5M-5M-5M-5M-5M-5M-5M-5M-5M-5M-5M-5M---|
----------------------------------------------------|


----------------------------------------------------|
----------------------------------------------------|
--9-------------------------------------------------|
--9--------------------------------7h-5-------------|
--7-----------------------7h-5--------------7h-5----|
--------0M-0M-0M-0M-0M-0M-------0M-------0M---------|


----------------------------------------------------|
----------------------------------------------------|
-----------------------------------7L-------7-------|
--9--------------------------------7L-------7-------|
--7-----------------------7--5-----5L-------5-------|
--------0M-0M-0M-0M-0M-0M-------0M------------------|


----------------------------------------------------|
----------------------------------------------------|
----------------------------------------------------|
--2--------2----------------------------------------|
--2--------2----------------------------------------|
--0--------0--------0M-0M-0M-0M-0M-0M-0M-0M-0M-0M---|


----------------------------------------------------|----------|
----------------------------------------------------|----------|
--9--------9----------------------------------------|--5--7----|
--9--------9----------------------------------------|--5--7----|
--7--------7----------------------------------------|--3--5----|
--------------------0M-0M-0M-0M-0M-0M-0M-0M-0M-0M---|----------|


----------------------------------------------------|
----------------------------------------------------|
--9-------------------------------------------------|
--9-------------------------------------------------|
--7-------------------------------------------------|
--------0M-0M-0M-0M-0M-0M-0M-0M-0M-0M-0M-0M-0M-0M---|


----------------------------------------------------|
----------------------------------------------------|
----------------------------------------------------|
--2--------2----------------------------------------|
--2--------2----------------------------------------|
--0--------0--------0M-0M-0M-0M-0M-0M-0M-0M-0M-0M---|


----------------------------------------------------|----------|
----------------------------------------------------|----------|
--9--------9----------------------------------------|--5--7----|
--9--------9----------------------------------------|--5--7----|
--7--------7----------------------------------------|--3--5----|
--------------------0M-0M-0M-0M-0M-0M-0M-0M-0M-0M---|----------|


----------------------------------------------------|
----------------------------------------------------|
--9-------------------------------------------------|
--9-------------------------------------------------|
--7-------------------------------------------------|
--------0M-0M-0M-0M-0M-0M-0M-0M-0M-0M-0M-0M-0M-0M---|


----------------------------------------------------|
----------------------------------------------------|
----------------------------------------------------|
----------------------------------------------------|
----------------------------------------------------|
--0M-0M-0M-0M-0M-0M-0M-0M-0M-0M-0M-0M-0M-0M-0M-0M---|


----------------------------------------------------|
----------------------------------------------------|
----------------------------------------------------|
----------------------------------------------------|
----------------------------------------------------|
--0M-0M-0M-0M-0M-0M-0M-0M-0M-0M-0M-0M-0M-0M-0M-0M---|


----------------------------------------------------|
----------------------------------------------------|
--9-------------------------------------------------|
--9--------------------------------7h-5-------------|
--7-----------------------7h-5--------------7h-5----|
--------0M-0M-0M-0M-0M-0M-------0M-------0M---------|


----------------------------------------------------|
----------------------------------------------------|
-----------------------------------7L-------7-------|
--9--------------------------------7L-------7-------|
--7-----------------------7--5-----5L-------5-------|
--------0M-0M-0M-0M-0M-0M-------0M------------------|


----------------------------------------------------|
----------------------------------------------------|
--9-------------------------------------------------|
--9--------------------------------7h-5-------------|
--7-----------------------7h-5--------------7h-5----|
--------0M-0M-0M-0M-0M-0M-------0M-------0M---------|


----------------------------------------------------|
----------------------------------------------------|
-----------------------------------7L-------7-------|
--9--------------------------------7L-------7-------|
--7-----------------------7--5-----5L-------5-------|
--------0M-0M-0M-0M-0M-0M-------0M------------------|


----------------------------------------------------|
----------------------------------------------------|
--9-------------------------------------------------|
--9--------------------------------7h-5-------------|
--7-----------------------7h-5--------------7h-5----|
--------0M-0M-0M-0M-0M-0M-------0M-------0M---------|


----------------------------------------------------|
----------------------------------------------------|
-----------------------------------7L-------7-------|
--9--------------------------------7L-------7-------|
--7-----------------------7--5-----5L-------5-------|
--------0M-0M-0M-0M-0M-0M-------0M------------------|


----------------------------------------------------|
----------------------------------------------------|
--9-------------------------------------------------|
--9--------------------------------7h-5-------------|
--7-----------------------7h-5--------------7h-5----|
--------0M-0M-0M-0M-0M-0M-------0M-------0M---------|


----------------------------------------------------|
----------------------------------------------------|
-----------------------------------7L-------7-------|
--9--------------------------------7L-------7-------|
--7-----------------------7--5-----5L-------5-------|
--------0M-0M-0M-0M-0M-0M-------0M------------------|


----------------------------------------------------|
----------------------------------------------------|
--5-------------------------------------------------|
--5-------------------------------------------------|
--3-----3M-3M-3M-3M-3M-3M-3M-3M-3M-3M-3M-3M-3M-3M---|
----------------------------------------------------|


----------------------------------------------------|
----------------------------------------------------|
--7-------------------------------------------------|
--7-------------------------------------------------|
--5-----5M-5M-5M-5M-5M-5M-5M-5M-5M-5M-5M-5M-5M-5M---|
----------------------------------------------------|


----------------------------------------------------|
----------------------------------------------------|
--9-------------------------------------------------|
--9--------------------------------7h-5-------------|
--7-----------------------7h-5--------------7h-5----|
--------0M-0M-0M-0M-0M-0M-------0M-------0M---------|


----------------------------------------------------|
----------------------------------------------------|
-----------------------------------7L-------7-------|
--9--------------------------------7L-------7-------|
--7-----------------------7--5-----5L-------5-------|
--------0M-0M-0M-0M-0M-0M-------0M------------------|


----------------------------------------------------|
----------------------------------------------------|
--5-------------------------------------------------|
--5-------------------------------------------------|
--3-----3M-3M-3M-3M-3M-3M-3M-3M-3M-3M-3M-3M-3M-3M---|
----------------------------------------------------|


----------------------------------------------------|
----------------------------------------------------|
--7-------------------------------------------------|
--7-------------------------------------------------|
--5-----5M-5M-5M-5M-5M-5M-5M-5M-5M-5M-5M-5M-5M-5M---|
----------------------------------------------------|


----------------------------------------------------|
----------------------------------------------------|
--9-------------------------------------------------|
--9--------------------------------7h-5-------------|
--7-----------------------7h-5--------------7h-5----|
--------0M-0M-0M-0M-0M-0M-------0M-------0M---------|


----------------------------------------------------|
----------------------------------------------------|
-----------------------------------7L-------7-------|
--9--------------------------------7L-------7-------|
--7-----------------------7--5-----5L-------5-------|
--------0M-0M-0M-0M-0M-0M-------0M------------------|


----------------------------------------------------|
----------------------------------------------------|
----------------------------------------------------|
--2--------2----------------------------------------|
--2--------2----------------------------------------|
--0--------0--------0M-0M-0M-0M-0M-0M-0M-0M-0M-0M---|


----------------------------------------------------|----------|
----------------------------------------------------|----------|
--9--------9----------------------------------------|--5--7----|
--9--------9----------------------------------------|--5--7----|
--7--------7----------------------------------------|--3--5----|
--------------------0M-0M-0M-0M-0M-0M-0M-0M-0M-0M---|----------|


----------------------------------------------------|
----------------------------------------------------|
--9-------------------------------------------------|
--9-------------------------------------------------|
--7-------------------------------------------------|
--------0M-0M-0M-0M-0M-0M-0M-0M-0M-0M-0M-0M-0M-0M---|


----------------------------------------------------|
----------------------------------------------------|
----------------------------------------------------|
--2--------2----------------------------------------|
--2--------2----------------------------------------|
--0--------0--------0M-0M-0M-0M-0M-0M-0M-0M-0M-0M---|


----------------------------------------------------|----------|
----------------------------------------------------|----------|
--9--------9----------------------------------------|--5--7----|
--9--------9----------------------------------------|--5--7----|
--7--------7----------------------------------------|--3--5----|
--------------------0M-0M-0M-0M-0M-0M-0M-0M-0M-0M---|----------|


----------------------------------------------------|
----------------------------------------------------|
--9-------------------------------------------------|
--9-------------------------------------------------|
--7-------------------------------------------------|
--------0M-0M-0M-0M-0M-0M-0M-0M-0M-0M-0M-0M-0M-0M---|


----------------------------------------------------|----------|
----------------------------------------------------|----------|
--7-------------------------------------------------|--3--5----|
--7-------------------------------------------------|--3--5----|
--5-----5M-5M-5M-5M-5M-5M-5M-5M-5M-5M-5M-5M-5M-5M---|--1--3----|
----------------------------------------------------|----------|


----------------------------------------------------|----------|
----------------------------------------------------|----------|
--7-------------------------------------------------|--3-------|
--7-------------------------------------------------|--3--5----|
--5-----5M-5M-5M-5M-5M-5M-5M-5M-5M-5M-5M-5M-5M-5M---|--1--5----|
----------------------------------------------------|-----3----|


----------------------------------------------------|----------|-------|-------|
----------------------------------------------------|----------|-------|-------|
--7-------------------------------------------------|--3--5----|--3----|--2----|
--7-------------------------------------------------|--3--5----|--3----|--2----|
--5-----5M-5M-5M-5M-5M-5M-5M-5M-5M-5M-5M-5M-5M-5M---|--1--3----|--1----|--0----|
----------------------------------------------------|----------|-------|-------|


----------------------------------------------------|
----------------------------------------------------|
--2--------------------------------------------10L--|
--2-----------------------10----9-----7-----9--10L--|
--0-----------------------8-----7-----5-----7--8L---|
----------------------------------------------------|


----------------------------------------------------|----------|-------|
----------------------------------------------------|----------|-------|
--10------------------------------------------------|--6--8----|--10---|
--10------------------------------------------------|--6--8----|--10---|
--8-----8M-8M-8M-8M-8M-8M-8M-8M-8M-8M-8M-8M-8M-8M---|--4--6----|--8----|
----------------------------------------------------|----------|-------|


----------|-------|----------|-------|----------|-------|----------|-------|
----------|-------|----------|-------|----------|-------|----------|-------|
--6--3----|--10---|--6--8----|--10---|--6--3----|--7----|--3--5----|--7----|
--6--3----|--10---|--6--8----|--10---|--6--3----|--7----|--3--5----|--7----|
--4--1----|--8----|--4--6----|--8----|--4--1----|--5----|--1--3----|--5----|
----------|-------|----------|-------|----------|-------|----------|-------|


----------|-------|----------|-------|----------------------------|
----------|-------|----------|-------|----------------------------|
--3-------|--7----|--3--5----|--7----|--3-------------------------|
--3--5----|--7----|--3--5----|--7----|--3-------------------------|
--1--5----|--5----|--1--3----|--5----|--1-------------------------|
-----3----|-------|----------|-------|----------------------------|


----------------------------------------------------|
----------------------------------------------------|
----------------------------------------------------|
--2--------2----------------------------------------|
--2--------2----------------------------------------|
--0--------0--------0M-0M-0M-0M-0M-0M-0M-0M-0M-0M---|


----------------------------------------------------|----------|
----------------------------------------------------|----------|
--9--------9----------------------------------------|--5--7----|
--9--------9----------------------------------------|--5--7----|
--7--------7----------------------------------------|--3--5----|
--------------------0M-0M-0M-0M-0M-0M-0M-0M-0M-0M---|----------|


----------------------------------------------------|
----------------------------------------------------|
--9-------------------------------------------------|
--9-------------------------------------------------|
--7-------------------------------------------------|
--------0M-0M-0M-0M-0M-0M-0M-0M-0M-0M-0M-0M-0M-0M---|


----------------------------------------------------|
----------------------------------------------------|
----------------------------------------------------|
--2--------2----------------------------------------|
--2--------2----------------------------------------|
--0--------0--------0M-0M-0M-0M-0M-0M-0M-0M-0M-0M---|


----------------------------------------------------|----------|
----------------------------------------------------|----------|
--9--------9----------------------------------------|--5--7----|
--9--------9----------------------------------------|--5--7----|
--7--------7----------------------------------------|--3--5----|
--------------------0M-0M-0M-0M-0M-0M-0M-0M-0M-0M---|----------|


----------------------------------------------------|
----------------------------------------------------|
--9-------------------------------------------------|
--9-------------------------------------------------|
--7-------------------------------------------------|
--------0M-0M-0M-0M-0M-0M-0M-0M-0M-0M-0M-0M-0M-0M---|


----------------------------------------------------|
----------------------------------------------------|
----------------------------------------------------|
--2--------2----------------------------------------|
--2--------2----------------------------------------|
--0--------0--------0M-0M-0M-0M-0M-0M-0M-0M-0M-0M---|


----------------------------------------------------|----------|
----------------------------------------------------|----------|
--9--------9----------------------------------------|--5--7----|
--9--------9----------------------------------------|--5--7----|
--7--------7----------------------------------------|--3--5----|
--------------------0M-0M-0M-0M-0M-0M-0M-0M-0M-0M---|----------|


----------------------------------------------------|
----------------------------------------------------|
--9-------------------------------------------------|
--9-------------------------------------------------|
--7-------------------------------------------------|
--------0M-0M-0M-0M-0M-0M-0M-0M-0M-0M-0M-0M-0M-0M---|


----------------------------------------------------|
----------------------------------------------------|
----------------------------------------------------|
--2--------2----------------------------------------|
--2--------2----------------------------------------|
--0--------0--------0M-0M-0M-0M-0M-0M-0M-0M-0M-0M---|


----------------------------------------------------|----------|
----------------------------------------------------|----------|
--9--------9----------------------------------------|--5--7----|
--9--------9----------------------------------------|--5--7----|
--7--------7----------------------------------------|--3--5----|
--------------------0M-0M-0M-0M-0M-0M-0M-0M-0M-0M---|----------|


----------------------------------------------------|
----------------------------------------------------|
--9-------------------------------------------------|
--9-------------------------------------------------|
--7-------------------------------------------------|
--------0M-0M-0M-0M-0M-0M-0M-0M-0M-0M-0M-0M-0M-0M---|


----------------------------------------------------|
----------------------------------------------------|
----------------------------------------------------|
----------------------------------------------------|
----------------------------------------------------|
--0M-0M-0M-0M-0M-0M-0M-0M-0M-0M-0M-0M-0M-0M-0M-0M---|


----------------------------------------------------||
----------------------------------------------------||
--------------------------9-------------------------||
-----------7h-5-----------9-------------------------||
--7h-5--------------7h-5--7-------------------------||
--------0M-------0M---------------------------------||
Tap to rate this tab
# A B C D E F G H I J K L M N O P Q R S T U V W X Y Z