Song name
# A B C D E F G H I J K L M N O P Q R S T U V W X Y Z

Striking December - Next Summer tab

-------------------------------------------------------------------------------
			     Next Summer - Striking December
-------------------------------------------------------------------------------
strikingdecember.com
Tabbed by: Price from Dropped As A Child
Email:Price182now@cs.com

Tuning:Standard
notes: Sd is an awesome band and every one should love them. easy song

e|Verse-----------------------------------------------------------|
B|----------------------------------------------------------------|
G|----------------------------------------------------0------0----|
D|----0-----0---------0-----0---------2-----2-------4-----4------4|
A|--2-----2-----2---0-----0-----0---2-----2-----2-5-----5------5--|
E|3-----3-----3---2-----2-----2---0-----0-----0-------------------|

e|Chorus----------------------------------------------------------|
B|----------------------------------------------------------------|
G|--------------------------------9-9-9-9-9-9-9-9-4-4-4-4-5-5-5-5-|
D|5-5-5-5-5-5-5-5-7-7-7-7-7-7-7-7-9-9-9-9-9-9-9-9-4-4-4-4-5-5-5-5-|
A|5-5-5-5-5-5-5-5-7-7-7-7-7-7-7-7-7-7-7-7-7-7-7-7-2-2-2-2-3-3-3-3-|
E|3-3-3-3-3-3-3-3-5-5-5-5-5-5-5-5---------------------------------|



Verse x2(without)with clean
Verse x2(with Band)w. clean
Chorus x2 with dis
Verse  x2 w. clean
Chorus x2 Palm Mute dis
Chorus x 6 during solo with dis (dont ask me for the fuckin solo cuz the
guitarist doesnt even know how to play it)
Verse x2 with dis.
Chorus x4 with dis
Verse x2 clean
===============================================================================
Tap to rate this tab
# A B C D E F G H I J K L M N O P Q R S T U V W X Y Z