Song name
# A B C D E F G H I J K L M N O P Q R S T U V W X Y Z

String Cheese Incident - Under African Skies tab

Under African Skies
performed by String Cheese
originally by Paul Simon

Intro, played throughout
e------------------------------|
B-5-5----2-----5-5----4-2------|
G------2---4--------4-----4----|
D------------------------------|
A------------------------------|
E------------------------------|

Chorus
e--0---0---2---2---------------|
B--0---2---5---4---------------|
G--1---2---4---4---------------|
D--2---2---2---4---------------|
A--2---0---2---2---------------|
E--0---------------------------|


wgwoodhurst@gmail.com
Tap to rate this tab
# A B C D E F G H I J K L M N O P Q R S T U V W X Y Z