Song name
# A B C D E F G H I J K L M N O P Q R S T U V W X Y Z

String Cheese Incident - Texas tab

String Cheese Incident
Texas


Verse

e|-3--------6------ 6-----------3-------------------------------------------|
B|-3--------6------ 8-----------4-------7-----------------------------------|
G|-3--------8------ 7-----------5-------7-----------------------------------|
D|-3--------8------ 8-----------5-------7-----------------------------------|
A|-5--------6------ 6-----------3-------5-----------------------------------|
E|-3------------------------------------------------------------------------|

e|-5--------5-----------------------------------------------------------------------|
B|-5--------5-------5-----------3-------3-------------------------------------------|
G|-5--------7-------5-----------3-------4-------------------------------------------|
D|-5--------7-------5-----------3-------5-------------------------------------------|
A|-7--------5-------3-----------1-------5-------------------------------------------|
E|-5------------------------------------3-------------------------------------------|

Chorus

e|-5--------5-------5---------0---------5--------5--------------3-----------------------|
B|-5--------5-------5---------0---------5--------5--------5--3--3-----------------------|
G|-5--------7-------5---------1---------5--------7--------5--3--4-----------------------|
D|-5--------7-------5---------2---------5--------7--------5--3--5-----------------------|
A|-7--------5-------5---------2---------7--------5--------3--1--5-----------------------|
E|-5----------------3---------0---------5-----------------------3-----------------------|
Tap to rate this tab
# A B C D E F G H I J K L M N O P Q R S T U V W X Y Z