Song name
# A B C D E F G H I J K L M N O P Q R S T U V W X Y Z

String Cheese Incident - Pirates tab

Kyle's piano opening:
--------------------------------------|----10-10-10----10-10-10---------------|
----3----4---7---4----7---4---3---4---|---------------------------------------|
----3----5---7---5----7---5---3---5---|----7--7--7-----7--7--7----------------|
--------------------------------------|---------------------------------------|
--------------------------------------|----5--5--5-----5--5--5----------------|
--3---3----5---5----5---5---3---3-----|---------------------------------------|


Kang's first melody: (1)
------------------------------------------------------------------------------|
------------------------------------------------------------------------------|
----------5-7-5--0-5-0-5-0----------------------------------------------------|
--0-5-7-8------------------4--3-0-3-5-5-4-3-----------------------------------|
------------------------------------------------------------------------------|
------------------------------------------------------------------------------|


-------------------------------------------8-9-10-----------------------------|
-----------------------5-8-7----7-8-9-10--------------------------------------|
----------5-7-6------6--------7-----------------------------------------------|
--0-5-7-8--------5-8----------------------------------------------------------|
------------------------------------------------------------------------------|
------------------------------------------------------------------------------|


------------------------------------------------------------------------------|
----------------------------------7-8---7---6---------------------------------|
----------5-7-5--0-5-0-5-0----5-8---------------------------------------------|
--0-5-7-8------------------4----------8---8-----------------------------------|
------------------------------------------------------------------------------|
------------------------------------------------------------------------------|


---------------------------6--------------------------------------------------|
-----------------------5-8---7--7-7--8-6--------------------------------------|
----------5-7-6------6-------------------7--6-5-------------------------------|
--0-5-7-8--------5-8----------------------------8-5---------------------------|
------------------------------------------------------------------------------|
------------------------------------------------------------------------------|

Kang's second melody: (2)
------------------------------------------------------------------------------|
--------------------------4------------------3-6-4--4-4--5--5-5--7--8-9-10----|
----3-4-5--5-4-3-2------5---7--7-6-5-4-----4----------------------------------|
--5-----------------4-7------------------6------------------------------------|
------------------------------------------------------------------------------|
------------------------------------------------------------------------------|


------------------------------------------------------------------------------|
--------------------------7------------------3-6-4--4-4--5--5-5---------------|
----3-4-5--5-4-3-2------5---7--7-6-5-4-----4----------------------------------|
--5-----------------4-7------------------6------------------------------------|
------------------------------------------------------------------------------|
------------------------------------------------------------------------------|


------------------------------------------------------------------------------|
---7---8----10----11---13-14-15-----------------------------------------------|
------------------------------------------------------------------------------|
-7---8---10----12-------------------------------------------------------------|
------------------------------------------------------------------------------|
------------------------------------------------------------------------------|


Kang's third melody (doubled by Kyle all 4 times) (3a)
-------------------------------------------5----5-------------------|
--------6----6--5----5--4---4---------4-7----7----7--4---4----------|
------7-----------------------------5------------------5---5--------|
--5-8------5-------5------5----4-7---------------------------7--4---| x2
--------------------------------------------------------------------|
--------------------------------------------------------------------|


Kang's harmony to above melody (3b)
-------------------------------------------8----8-------------------|
------8-11---11-10---10-9---9---------7-10---10---10-7---7----------|
--7-7-------------------------------8------------------8---8--------|
-----------7-------7------7----7-10--------------------------10-7---| x2
--------------------------------------------------------------------|
--------------------------------------------------------------------|

 (Gm - D)

Kang's part after Kyle's solo: (4a)
------------------------------------------------------------------------------|
------------------------------------------------------------------------------|
-----------5-7-7-5-8--5--5---7---------5--------------------------------------|
--5--5-7-8-----------------8----8--8-7---7--4-5-7-----------------------------|
------------------------------------------------------------------------------|
------------------------------------------------------------------------------|


Billy's harmony to above part: (4b)
------------------------------------------------------------------------------|
------------------------------------------------------------------------------|
------------------------------------------------------------------------------|
-----------3-5-5-7-8--7----5-7-5----4-5-4-------------------------------------|
--5--3-5-6---------------8--------6-------6-5-3-------------------------------|
------------------------------------------------------------------------------|





Kang's end run: (3a)

-------------------------------------------5----5--------------------|
--------6----6--5----5--4---4---------4-7----7----7--4---4-----------|
------7-----------------------------5------------------5---5---------|
--5-8------5-------5------5----4-7---------------------------7--4----| x3
---------------------------------------------------------------------|
---------------------------------------------------------------------|

Kang may also play his harmony (3b) to this a time or two,
until the band is ready to end.  Then he plays this final run: (5)

--------------------------------------5---5-----------------------------------|
--------6---6-5---5-4---4---------4-7---7---7-4---4---4-----------------------|
------7-------------------------5---------------5---5---5---------------------|
--5-8-----5-----5-----5-----4-7---------------------------7-4-7-4-7-4---------|
------------------------------------------------------------------------------|
------------------------------------------------------------------------------|


------------------3-----------------------------------------------------------|
------------------3-----------------------------------------------------------|
------------------3-----------------------------------------------------------|
----------------4-5-----------------------------------------------------------|
--6-3-6-3-6-3-5---5-----------------------------------------------------------|
------------------3-----------------------------------------------------------|


I think the order goes something like:
piano opening
 1
 2
 1
 2
 3a x2
 3b x2
 piano solo
 4b x2
 4b+4a x2
 kang solo
 3a x2
 3b x2
 5


sorry the presentation isn't clearer, but i think all the parts are there - so you 
be able to put
things in the right place if you listen along.
Tap to rate this tab
 
# A B C D E F G H I J K L M N O P Q R S T U V W X Y Z