Song name
# A B C D E F G H I J K L M N O P Q R S T U V W X Y Z

Strings - Sohniye tab

Tabbed By Muneeb Aka Rage

Band: Strings
Album: Dhanni
song: Sohniye
Tuning: Standard

This is my Very first tab :p So be gentle..
although i have tabbed all of it quite precisely
except for the small musical guitar parts in between the song mainly in the verses


Anyway enjoy :p


Oh and yea ive tabbed the song but u have to fig out the timings ur self ;)


Legend:

/s or s = Slide
~       = Let ring
x       = Mute Note/string
h       = Hammer

Intro Distorted..
------------------|
------------------|
----/s------------|
---/s-----5-------|
--/s------5-------|
-/s-------3-------|

Distorted (played over Verse)

------------------|
------------------|
-5---7------------|  X2
-5---7---5--------|
-3---5---5--------|
---------3--------|


This is played After playing the upper chords 2 times

---------------------|
---------------------|
-5---7----9-------5~-|
-5---7----9---7---5~-| Let ring (~) only on the second verse.
-3---5----7---7---3~-|
--------------5------|

Chorus -Distorted


-------------------|
-------------------|
-----9-------5-----|
-5---9---7---5-----|
-5---7---7---3-----|
-3-------5---------|

Pre-Bridge solo


--------------------|
--------------------|
--------------------|
----------5h7-7s12~-|
--5xxx-5h7----------|
--------------------|
P.M

Bridge -Distorted

-----------------------------|
-----------------------------|
------7~--------5~--------5~-|
-5~---7~---7~---5~---5~---5~-|
-5~---5~---7~---3~---5~---7~-|
-3~--------5~--------3~------|


Ends With chorus...

So the song goes like this


Intro
verse
Chorus
Music break
Pre bridge solo
Bridge
Chorus till the end


Thats about all of it...
iam still working on the solo which is played in the very last chorus of the song
But still the main song is tabbed ...so if u want to give sum contributions
or Corrections be my guest :)

Rock On !!!!

Contact me via email : Knd_2005_5@hotmail.com
Tap to rate this tab
 
# A B C D E F G H I J K L M N O P Q R S T U V W X Y Z