Song name
# A B C D E F G H I J K L M N O P Q R S T U V W X Y Z

Strings - Anjaane tab

This is the Solo #1 of Anjaane.

E ---------------------6-5-----------------------------|
B -------------------3---------------------------------|
G -7p5-5h7p5h7-----3-------------------3-2-3-2-/12-10~-|
D -------------8~\-------------------------------------|
A -----------------------------------------------------|
E --------------------------1-3-1-5-3\-----------------|

                        This goes faster
E -11-10----------------------------------------------------------------------|
B -------11------------------------------11----------------------13h15h17-18~-|
G ----------10------------------------10----------------14h15h16--------------|
D -------------13-12------------12h13-------------13h15-----------------------|
A -------------------13---12h13-------------13h15-----------------------------|
E ----------------------------------------------------------------------------|

I'll be submitted solo #2 soon.

Peace.
Tap to rate this tab
# A B C D E F G H I J K L M N O P Q R S T U V W X Y Z