Song name
# A B C D E F G H I J K L M N O P Q R S T U V W X Y Z

Strings - Chaaye Chaaye tab

hey guyz....diz iz n ezy song but needs ur fingerz to move very fast!!
ENJOY!!

e|---10-10--9--9--9--9--9-----0---0---0--0--0--------------------|
b|---10-10--10-10-10-10-10----8(s)10--10-10-10-------------------|
g|----9--9--9--9--9--9--9----------------------------------------|
d|---------------------------------------------------------------|
a|---------------------------------------------------------------|
e|------------------------ (strum them) x4 ----------------------|

then cumz de flute part...

e|-------------9-10-12-10-9------9-12-10-9------------------------|
b|-12-12-12-12--------------10-12---------10-12-10---10-12--------|
g|-------------------------------------------------13------11-9---|
d|----------------------------------------------------------------|
a|----------------------------------------------------------------|
e|----------------------------------------------------------------|
Tap to rate this tab
# A B C D E F G H I J K L M N O P Q R S T U V W X Y Z