Song name
# A B C D E F G H I J K L M N O P Q R S T U V W X Y Z

Strings - Sar Kiyae tab

hey i found dez tabz matchin wid da original solo!..
though a projector iz uzd der bt still it soundzz da same!

e|----------------5-5h6-6p5-5s3-3s1------------------------------|
B|---6s7-6----6s7-------------------3-4-3-1----------------------|
G|-5--------5----------------------------------------------------|
D|---------------------------------------------------------------|
A|---------------------------------------------------------------|
E|---------------------------------------------------------------|


e|-----------------------17-17h18-18p17-17s15-15s13--------------|
B|----18s20-18-----18s20-----------------------------15-16-15-18-|
G|-17-----------17-----------------------------------------------|
D|---------------------------------------------------------------|
A|---------------------------------------------------------------|
E|---------------------------------------------------------------|


enjoy n plzz rate!!
Tap to rate this tab
# A B C D E F G H I J K L M N O P Q R S T U V W X Y Z