Song name
# A B C D E F G H I J K L M N O P Q R S T U V W X Y Z

Stroke 9 - Vacuum Bag Accoustic tab

-------------------------------------------------------------------------------
			     Vacuum Bag Acoustic - Stroke 9
-------------------------------------------------------------------------------
Tabbed by: GibsonPure411
Email: forishner@yahoo.com

Tuning: Standard

This is my first tab so I hope its good :).
I only got the intro to it down but if you don't think its right or you want to give the 
chords for the chorus, send me an e-mail.

e|------------------------------------------------------------------|
B|------------------------------------------------------------------|
G|------8-----8------8-----8----------------------------------------|
D|----8-----8------8-----8--------0-----0---------8--8-6-5----------|
A|--6-----6---------------------8-----8-----8---6----------6--------|
E|---------------8-----8------6-----6-----6---4---------------------|


| /  slide up
| \  slide down
| h  hammer-on
| p  pull-off
| ~  vibrato
| +  harmonic
| x  Mute note
===============================================================================
Tap to rate this tab
# A B C D E F G H I J K L M N O P Q R S T U V W X Y Z