Song name
# A B C D E F G H I J K L M N O P Q R S T U V W X Y Z

Stroke 9 - City Life tab

INTRO:
e-------0---------0---------0---------0-------
B---4-----4---4-----4---4-----4---4-----4-----
G-4---4-----4---4-----2---2-----2---2--------- (x2)
D---------------------------------------------
A---------------------------------------------
E---------------------------------------------

e-----0-0---0-----------------------------------------------------
B-----0-0---0------4-4---4----------------------------------------
G-----1-1---1------4-4---4-----1-1-2-222-11------1-1-2-222-11-----
D-----2-2---2------4-4---4-----------------22----------------22---
A-----2-2---2--2-2-2-2-2-2--0-----------------1-----------------1-
E-0-0-0-0-0-0-----------------------------------------------------

VERSE:
e-----0-0---0-----------------------------------------------------
B-----0-0---0------4-4---4----------------------------------------
G-----1-1---1------4-4---4-----1-1-2-222-11------1-1-2-222-11-----
D-----2-2---2------4-4---4-----------------22----------------22---
A-----2-2---2--2-2-2-2-2-2--0-----------------1-----------------1-
E-0-0-0-0-0-0-----------------------------------------------------

BRIDGE:
e-------0---------0---------0---------0--------
B---4-----4---4-----4---4-----4---4-----4------
G-4---4-----4---4-----4---4-----4---4---------- (x2)
D----------------------------------------------
A----------------------------------------------
E----------------------------------------------

I couldn't figure out the chorus chords... it sounds like it's probably 
E and B, but I'm not sure if that's right, and if it is, I'm not sure
how it's played.  Please give me feedback at jaybar36@hotmail.com

Tap to rate this tab
# A B C D E F G H I J K L M N O P Q R S T U V W X Y Z