Guitaretab - guitar tabs
Song name
# A B C D E F G H I J K L M N O P Q R S T U V W X Y Z

Stroke 9 - Tear Me In Two tab

Title: Tear Me In Two
Artist: Stroke 9
Album: Nasty Little Thoughts
Transcribed by: Tim Ferrante

Intro
E|---x---0---0-0-0-0-0-0-0-0-0-0-0-0-0-0-0-
B|---3---0h1---1-1-0-0-1-1-1-1-1-0-0-1-1-1-
G|---2---0-----0-0-0-0-0-0-0-0-0-0-0-0-0-0-   Repeat x2
D|-------0h2---2-2-2-2-2-2-2-2-2-2-2-2-2-2-
A|-----0-------------3-3-3-3-3-3-3-3-3-3-3-
D|-0---------------------------------------


D
   I know itís hard please try to coax me
C
   Try to elevate me to the level of choice
D
   A scarlet sky, a silver moon is a veil before my eyes
G  
   How can she be so in tune
Dsus  D  Dadd2

Bm
Tear me in two 
E
and bore a little hole 
A
that I can see right trough
G
Your diversions my digression
Bm
Take me apart
E
Suck my blood until you stop my heart
A
You encumber my progression
G
And then you save me

E|---x---0---0-0-0-0-0-0-0-0-0-0-0-0-0-0-0-
B|---3---0h1---1-1-0-0-1-1-1-1-1-0-0-1-1-1-
G|---2---0-----0-0-0-0-0-0-0-0-0-0-0-0-0-0-   Repeat x1
D|-------0h2---2-2-2-2-2-2-2-2-2-2-2-2-2-2-
A|-----0-------------3-3-3-3-3-3-3-3-3-3-3-
D|-0---------------------------------------

D
   It slips by, it slips right by
C
   Much to my surprise
D
   And you think that I drink too much
G
   Yeah, well I don't mind.
             Dsus  D  Dadd2
I don't mind
[ Tab from: http://www.guitaretab.com/s/stroke-9/29822.html ]
Bm
Tear me in two 
E
and bore a little hole 
A
that I can see right trough
G
Your diversions my digression
Bm
Take me apart
E
Suck my blood until 
A
You stop my heart
G
You encumber my progression

And then you save me

D Dsus D Dsus D Dsus
(You save me save me)   Repeat x4

E|----------------------------
B|----------------------------
G|----------------------------
D|-3--------------------------
A|-3--------------------------
D|-3--------------------------
    I think of all the time we've wasted
E|----------------------------
B|----------------------------
G|----------------------------
D|-2--------------------------
A|-2--------------------------
D|-2--------------------------
    I think of all our time apart
E|--------
B|--------
G|--------
D|-5-3-0--
A|-5-3-0--
D|-5-3-0-- D
           Your scaly tongue is not the one
          G                    Dsus  D  Dadd2 Dsus D Dadd2
           That I need anymore

Bm
Tear me in two 
E
and bore a little hole 
A
that I can see right trough
G
Your diversions my digression
Bm
Take me apart
E
Suck my blood until 
A
You stop my heart
G
You encumber my progression
Bm
Tear me in two 
E
and bore a little hole 
A
that I can see right trough
G
Your diversions my digression
Bm
Take me apart
E
Suck my blood until 
A
You stop my heart
G
You encumber my progression

And then you save me
Related for Tear Me In Two tab