Song name
# A B C D E F G H I J K L M N O P Q R S T U V W X Y Z

Stroke 9 - Are You In This tab

#----------------------------------PLEASE NOTE---------------------------------#
#This file is the author's own work and represents their interpretation of the #
#song. You may only use this file for private study, scholarship, or research. #
#------------------------------------------------------------------------------#

Subject: Stroke 9 - Are You In This?
Date: Thursday, 07. November 2002
From: BurningJoe


It's the song number 6 on the Stroke 9 - "Nasty Little Thoughts" Album.

I've only done the Intro riff yet...

Intro riff:


---------------------------------|---------------------------------|
---------------------------------|---------------------------------|
----------7--0----------4-----0--|----------7--0----------4-----0--|
--3s5--5--------5h7--7-----7-----|--3s5--5--------5h7--7-----7-----|
---------------------------------|---------------------------------|
---------------------------------|---------------------------------|


---------------------------------|---------------------------------|
---------------------------------|---------------------------------|
----------7--0----------4-----0--|----------7--0----------4-----0--|
--3s5--5--------5h7--7-----7-----|--3s5--5--------5h7--7-----7-----|
---------------------------------|---------------------------------|
---------------------------------|---------------------------------|


---------------------------------|---------------------------------|
---------------------------------|---------------------------------|
----------7--0----------4-----0--|----------7--0----------4-----0--|
--3s5--5--------5h7--7-----7-----|--3s5--5--------5h7--7-----7-----|
---------------------------------|---------------------------------|
---------------------------------|---------------------------------|

------------------------------------------------------------------|
------------------------------------------------------------------|
-----0-----5----0-----------0-----5--4----0-----------------------|
--5-----5----------5--3--------0-------------5--------------------|
-------------------------5----------------------------------------|
------------------------------------------------------------------|


Questions, comments, corrections, requests to prinz.alex@vol.at
Tap to rate this tab
# A B C D E F G H I J K L M N O P Q R S T U V W X Y Z