Song name
# A B C D E F G H I J K L M N O P Q R S T U V W X Y Z

Strokes - Go Now tab

----------------------------------------------------------------------
----------------------------------------------------------------------
----------------------------------------------------------------------
----------------------------------------------------------------------  x2
-5-5-5-5-5----------6-6-6-6-6----------7-7-7-7-7----------6-6-6-6-6---
-5-5-5-5-5----------6-6-6-6-6----------7-7-7-7-7----------6-6-6-6-6---


----------------------------------------------------------------------
----------------------------------------------------------------------
----------------------------------------------------------------------
-0-0-0-0-0----------0-0-0-0-0----------0-0-0-0-0----------0-0-0-0-0---  x2
-5-5-5-5-5----------6-6-6-6-6----------7-7-7-7-7----------6-6-6-6-6---
-5-5-5-5-5----------6-6-6-6-6----------7-7-7-7-7----------6-6-6-6-6---
Tap to rate this tab
# A B C D E F G H I J K L M N O P Q R S T U V W X Y Z