Song name
# A B C D E F G H I J K L M N O P Q R S T U V W X Y Z

Strokes - Someday Live tab

-------------------------------------------------------------------------------
			     Someday live - Strokes
-------------------------------------------------------------------------------

Tabbed by Jerry Calendo
Someday live at Belfort


Tuning: standard

Intro

e|-55-7--55-7--9-7---7-5--------------------------|
B|-55-5--77-7--7-7---5-5--------------------------|
G|-66-6--77-7--7-7---6-6--------------------------|
D|-77-7--------------7-7--------------------------|
A|------------------------------------------------|
E|------------------------------------------------|

 Verses

e|-5-7--5-7--9-7--7-5-----------------------------|
B|-5-5--7-7--7-7--5-5-----------------------------|
G|-6-6--7-7--7-7--6-6-----------------------------|
D|-7-7------------7-7-----------------------------|
A|------------------------------------------------|
E|------------------------------------------------|

 Chorus

e|-9--12--9--7-10-7-5-9-5-------------------------|
B|-10-----10-9----9-7---7-------------------------|
G|-9------9--9----9-6---6-------------------------| 
D|------------------------------------------------| 
A|------------------------------------------------|
E|------------------------------------------------|
fill 1
e|------------------------------------------------|
B|----7b------------5----5------------------------|
G|---------------5h7--5h7-------------------------|
D|------------------------------------------------|
A|------------------------------------------------|
E|------------------------------------------------|

e|-9--12--9--7-10-7-5-9-5-------------------------|
B|-10-----10-9----9-7---7-------------------------|
G|-9------9--9----9-6---6-------------------------| 
D|------------------------------------------------| 
A|------------------------------------------------|
E|------------------------------------------------|
fill 2
e|------------------------------------------------|
B|----7b~~~~~-------------------------------------|
G|------------------------------------------------|
D|------------------------------------------------|
A|------------------------------------------------|
E|------------------------------------------------|

e|-9--12--9--7-10-7-5-9-5-------------------------|
B|-10-----10-9----9-7---7-------------------------|
G|-9------9--9----9-6---6-------------------------| 
D|------------------------------------------------| 
A|------------------------------------------------|
E|------------------------------------------------|

fill 3
e|-------5-7--------------------------------------|
B|-----------7-5~~~~------------------------------|
G|------------------------------------------------|
D|------------------------------------------------|
A|------------------------------------------------|
E|------------------------------------------------|

e|-9--12--9--7-10-7-5-9-5-------------------------|
B|-10-----10-9----9-7---7-------------------------|
G|-9------9--9----9-6---6-------------------------| 
D|------------------------------------------------| 
A|------------------------------------------------|
E|------------------------------------------------|

e|------------------------------------------------|
B|-------7b~~~~~~~------9-------------------------|
G|----------------------9-x32---------------------|
D|----------------------9-------------------------|
A|----------------------7-------------------------|
E|------------------------------------------------|

 Bridge
Bass  tabbed for guitar
e|------------------------------------------------|
B|------------------------------------------------|
G|------------------------------------------------|
D|------------------------------------------------|
A|-----------0-0-2-2-5-5-0-0----------------------|
E|------------------------------------------------|
 fill during bass solo
e|------------------------------------------------|
B|------------------------------------------------|
G|------------------------------------------------|
D|------7h9---------------------------------------|
A|---------9p7---------7--------------------------|
E|-------------9----------9----5------------------|

e|-5-7--5-7--9-7--7-5-----------------------------|
B|-5-5--7-7--7-7--5-5-----------------------------|
G|-6-6--7-7--7-7--6-6-----------------------------|
D|-7-7------------7-7-----------------------------| 
A|------------------------------------------------|
E|------------------------------------------------|

Order Of Song

 Intro X 2
 Verse X 4
 Chorus
 Bridge
 Verse X 2
 Chorus

 End On
 
e|--5----------------------------------------------|
B|--5----------------------------------------------|
G|--6----------------------------------------------|
D|--7----------------------------------------------|
A|--7----------------------------------------------|
E|--5----------------------------------------------|
Tap to rate this tab
 
# A B C D E F G H I J K L M N O P Q R S T U V W X Y Z