Song name
# A B C D E F G H I J K L M N O P Q R S T U V W X Y Z

Strokes - Reptilia tab

E|--------------------------------------------|
B|--33-3----33-3-----------3--------3---------|
G|------42------42---11-1-4---11-1-4----------|
D|--------------------------------------------|   Riff 1 2 times
A|--------------------------------------------|
E|--------------------------------------------|


E|--------------------------------------------|
B|-1515-1414-1212-1414-1212-1414-1010-1515----|
G|-1616-1414-1212-1414-1212-1414-1111-1616----|   Chorus  
D|--------------------------------------------|    
A|--------------------------------------------|
E|--------------------------------------------|

Solo

|--------------------------------------------------------------------------|
|-9-7--7---------------7--9-7--7-------------------9-7--7----------------7-|
|----9---9-7-9-7-6-7-6--------9---9-7-9-7-6-7-6--------9---9-7-9-7-6-7-6---|
|-----------------------------------------------9--------------------------|
|--------------------------------------------------------------------------|
|--------------------------------------------------------------------------|


|---------------------|
|-9-7--7--------------|
|-----9---9-7---------|
|-------------9-------|
|---------------------|
|---------------------|


|-------------------------------10-9-----------------|
|--12--12--10p9-----------------------10p9-----------|
|---------------11p9-11--7-----------------11p9-11--7|
|----------------------------------------------------|
|----------------------------------------------------|
|----------------------------------------------------|

|-12b13r12---10p9---------------12b13r12---10p9----------|
|-----------------12p10--12-9---------------------12--10-|
|--------------------------------------------------------|
|--------------------------------------------------------|
|--------------------------------------------------------|
|--------------------------------------------------------|


|-----------------------------------------|
|-9-7--7---------------7--9-7--7----------|
|----9---9-7-9-7-6-7-6--------9---9-7-----|
|--------------------------------------9--|
|-----------------------------------------|
|-----------------------------------------|


Riff 1    2 times
Chorus
Solo
Riff 1
Chorus

Tap to rate this tab
 
# A B C D E F G H I J K L M N O P Q R S T U V W X Y Z