Song name
# A B C D E F G H I J K L M N O P Q R S T U V W X Y Z

Strokes - The End Has No End tab

Artist ; The Strokes

Song Title ; The End Has No End

Album ; Room On fire


I think this song is in E flat tuning. The intro is - I'm 90% sure - correct, and the 
tabs given here  of what I've seen - are for standard tuning where none of the intro 
are correct. Therefore I'm guessing this one is.

Guitar 1 ;  Nick Valensi
Guitar 2 ; Albert Hammond Jr

KEY:

b = bend
/ = slide to (up or down)


Intro - Guitar 1
Eb||----------------------------------|-------------------------------------||
Bb||----------------------------------|-------------------------------------||
Gb||--3-3-3-3-3-3-3-3-----------------|--2-2-2-2-2-2-2-2--------------------||
Db||--3-3-3-3-3-3-3-3--3-3-3-3-3-3-3-3|--2-2-2-2-2-2-2-2-2-2-2-2-2-2-2-2----||
Ab||--1-1-1-1-1-1-1-1--3-3-3-3-3-3-3-3|--0-0-0-0-0-0-0-0-2-2-2-2-2-2-2-2----||
Eb||-------------------1-1-1-1-1-1-1-1|------------------0-0-0-0-0-0-0-0----||


Verse A - Guitar 1 (palm-muted)

     One by one ticking time bombs won...
Eb||--5--5--5--5--5--5--5--5--|--5--5--5--5--5--5--5--5--|
Bb||--7--7--7--7--7--7--7--7--|--7--7--7--7--7--7--7--7--|
Gb||--------------------------|--------------------------|
Db||--------------------------|--------------------------|
Ab||--------------------------|--------------------------|
Eb||--------------------------|--------------------------| (x2)

  Oh, it's the other way around. Hey, what's that sound...
--5--5--5--5--5--5--5--5--|--5--5--5--5--5--5--5--5--|
--5--5--5--5--5--5--5--5--|--5--5--5--5--5--5--5--5--|
--------------------------|--------------------------|
--------------------------|--------------------------|
--------------------------|--------------------------|
--------------------------|--------------------------|

  One by one by one baby here they come...
--5--5--5--5--5--5--5--5--|--5--5--5--5--5--5--5--5--|
--5--5--5--5--5--5--5--5--|--5--5--5--5--5--5--5--5--|
--6--6--6--6--6--6--6--6--|--6--6--6--6--6--6--6--6--|
--------------------------|--------------------------|
--------------------------|--------------------------|
--------------------------|--------------------------|

  He wants it easy... He want it relaxed...
--5--5--5--5--5--5--5--5--|--5--5--5--5--5--5--5--5--||
--7--7--7--7--7--7--7--7--|--7--7--7--7--7--7--7--7--||
--7--7--7--7--7--7--7--7--|--7--7--7--7--7--7--7--7--||
--------------------------|--------------------------||
--------------------------|--------------------------||
--------------------------|--------------------------|| (x2)

 Two steps forward...    Then two steps back alright.
--5--5--5--5--5--5--5--5--|--5--5--5--5--5--5--5--5--|
--5--5--5--5--5--5--5--5--|--5--5--5--5--5--5--5--5--|
--6--6--6--6--6--6--6--6--|--6--6--6--6--6--6--6--6--|
--------------------------|--------------------------|
--------------------------|--------------------------|
--------------------------|--------------------------|
Verse A - Guitar 2
Only slide on the second repeat of each line.

E||----------------------|-----------------------|-----------------------|
B||--8--------7----------|--8-------7----7-------|--8---------7----------|
G||-------7---------7----|-------7----------7----|-------7---------7-----|
D||----------------------|-----------------------|-----------------------|
A||----------------------|-----------------------|-----------------------|
E||----------------------|-----------------------|-----------------------|

|------------------------|-----------------------|-----------------------|
|--8-------7-----7-------|--7---------5----------|--7-------5----5-------|
|-------7----------7/-6--|-------6---------6-----|-------6----------6----|
|------------------------|-----------------------|-----------------------|
|------------------------|-----------------------|-----------------------|
|------------------------|-----------------------|-----------------------|

|----------------------|------------------------|| X2
|--7--------5----------|--7-------5----5--------||
|-------6---------6----|-------6----------6/-7--||
|----------------------|------------------------||
|----------------------|------------------------||
|----------------------|------------------------||

Verse B - Guitar 1

   Won't  ya  take  a walk....
E||----------------------------------|----------------------------------|
B||------------------15--------------|------------------15--------------|
G||------12--14--------------12--14--|------12--14--------------12--14--|
D||--12----------12------12----------|--12----------12------12----------|
A||----------------------------------|----------------------------------|
E||----------------------------------|----------------------------------|

----------------------------------|----------------------------------||
------------------14--------------|------------------14--------------||
------12--14--------------12--14--|------12--14--------------14--12--||
--11----------11------11----------|--11----------11------11----------||
----------------------------------|----------------------------------||
----------------------------------|----------------------------------||

Verse B - Guitar 2

Only slide on the second repeat of each line.

     Won't        ya       take     a     walk...
Eb||----------------------|-----------------------| X2
Bb||--8---------7---------|--8-------7----7-------|
Gb||-------7---------7----|-------7----------7/-6-|
Db||----------------------|-----------------------|
Ab||----------------------|-----------------------|
Eb||----------------------|-----------------------|

  out  side...          Oh no...
----------------------|-----------------------|| X2
--7---------5---------|--7-------5----5-------||
-------6---------6----|-------6----------6/7--||
----------------------|-----------------------||
----------------------|-----------------------||
----------------------|-----------------------||

Chorus - Guitar 1

     The     End             Has        No          End
Eb||----------------------------------|--------------------------------------||
Bb||----------------------------------|--12--12--12--------------------------||
Gb||--12--12--14--14--14--14--12--12--|--------------14--14--14--14--14------||
Db||----------------------------------|--------------------------------------||
Ab||----------------------------------|--------------------------------------||
Eb||----------------------------------|--------------------------------------||
Chorus - Guitar 2

     C#                         G#
Eb||--------------------------|--5--5--5--5--5--5--5--5--|
Bb||--7--7--7--7--7--7--7--7--|--5--5--5--5--5--5--5--5--|
Gb||--7--7--7--7--7--7--7--7--|--6--6--6--6--6--6--6--6--|
Db||--7--7--7--7--7--7--7--7--|--7--7--7--7--7--7--7--7--|
Ab||--5--5--5--5--5--5--5--5--|--7--7--7--7--7--7--7--7--|
Eb||--------------------------|--5--5--5--5--5--5--5--5--|

  A#m                        D#m
--7--7--7--7--7--7--7--7--|--7--7--7--7--7--7--7--7--||
--7--7--7--7--7--7--7--7--|--8--8--8--8--8--8--8--8--||
--7--7--7--7--7--7--7--7--|--9--9--9--9--9--9--9--9--||
--9--9--9--9--9--9--9--9--|--9--9--9--9--9--9--9--9--||
--9--9--9--9--9--9--9--9--|--7--7--7--7--7--7--7--7--||
--7--7--7--7--7--7--7--7--|--------------------------||


Solo - Guitar 1 (palm-muted)
   C#5
Eb||--------------------------||
Bb||--------------------------||
Gb||--7--7--7--7--7--7--7--7--||
Db||--7--7--7--7--7--7--7--7--||
Ab||--5--5--5--5--5--5--5--5--||
Eb||--------------------------|| (x4)
   G#5
Eb||--------------------------||
Bb||--------------------------||
Gb||--------------------------||
Db||--7--7--7--7--7--7--7--7--||
Ab||--7--7--7--7--7--7--7--7--||
E|b|--5--5--5--5--5--5--5--5--|| (x4)

* begin releasing palm mute after 2nd bar of G#5

Solo - Guitar 2

Eb||-----------------8----|--7----5---------5----|--5----5--5----5--5--5--|
Bb||--10br--8---7---------|------------8---------|--7b------7b------7b----|
Gb||----------------------|----------------------|------------------------|
Db||----------------------|----------------------|------------------------|
Ab||----------------------|----------------------|------------------------|
Eb||----------------------|----------------------|------------------------|
                          *b
--5----5--5----5--5--5--|--------------------------|
--7b------7b------7b----|--8--8--8--8--8--8--8--8--|
------------------------|--------------------------|
------------------------|--------------------------|
------------------------|--------------------------|
------------------------|--------------------------|
  *b                                 *b
----------------------------------|----------------------------------|
--10--10--10--10--10--10--10--10--|--11--11--11--11--11--11--11--11--|
----------------------------------|----------------------------------|
----------------------------------|----------------------------------|
----------------------------------|----------------------------------|
----------------------------------|----------------------------------|
  *b
----------------------------------||
--12--12--12--12--12--12--12--12--||
----------------------------------||
----------------------------------||
----------------------------------||
----------------------------------||
*b - slowly bend each of these bars to full-bend without releasing.


Verse C - Guitar 1

     He wants it easy...
     C#
Eb||--------------------------||
Bb||--7--7--7--7--7--7--7--7--||
Gb||--7--7--7--7--7--7--7--7--||
Db||--7--7--7--7--7--7--7--7--||
Ab||--5--5--5--5--5--5--5--5--||
Eb||--------------------------|| (x4)

     Two steps forward...
     G#
Eb||--5--5--5--5--5--5--5--5--||
Bb||--5--5--5--5--5--5--5--5--||
Gb||--6--6--6--6--6--6--6--6--||
Db||--7--7--7--7--7--7--7--7--||
Ab||--7--7--7--7--7--7--7--7--|| (x4)
Eb||--5--5--5--5--5--5--5--5--||

Use the song for the song structure. I'm bored of writing.
Tap to rate this tab
# A B C D E F G H I J K L M N O P Q R S T U V W X Y Z