Song name
# A B C D E F G H I J K L M N O P Q R S T U V W X Y Z

Strokes - Under Cover Of Darkness tab

Tabbed by: MuhamadAmir

Tuning: EADGBe

This is my first time tabbing a song. There's still no tab out yet, so I did my 
own one. Hope you guys okay with this tab cause the album is not out yet (soon) 
and I used my ear to tabbed it. And btw, I didn't get much for Albert's guitar 
tabs, mostly Nick's guitar tabs. Sorry guys~


l can't get all Albert's guitar tabs. Only Nick guitar tabs - Lead.

Albert [Rhythm]
  
e||------11-----|-------11----|----12-12-11-11-9-7------7-9h\4-7-|
B||12-12---11-11|12-12---11-11|14-14---------------14-14---------|
G||x--x------11-|x--x------11-|x--x----------------x--x----------|
D||10-10--------|10-10--------|12-12---------------12-12---------|
A||-------------|-------------|----------------------------------| (X2)
E||-------------|-------------|----------------------------------|

Nick [Lead] (Follow Albert) (Nick join Albert after 1st intro by Albert)

e||----11^-11-9-7-|----18^-14-16-11-|----12-12-11-11-9-7-|-11-12h-7\9/7-|
B||---------------|-----------------|--------------------|--------------|
G||---------------|-----------------|--------------------|--------------|
D||---------------|-----------------|--------------------|--------------|
A||---------------|-----------------|--------------------|--------------|
E||---------------|-----------------|--------------------|--------------|

e||-----------------------------------------|
B||-----------------------------------------|
G||-----------------------------------------|
D||----------------------6-7h--------6-7h---|
A||------------------6-9h----6---6-9h----6--|
E||-7-7-7-7-7-7-7-7-7---------7-7---------7-|

e||-----------------------------|
B||-----------------------------|
G||-------------6---------6-----|
D||------------8-8-------8-8----|
A||-6-6-6-6-6-9---9-6-6-9---9-6-|
E||-----------------------------|

e||--------------------------|
B||--------------------------|
G||--------------------------|
D||---------6----------------|
A||----------6-6-9-6--6-9-6--|
E||-4-4-4-4---7------4-----4-|

e||-----------------|
B||-----------------|
G||-----------------|
D||-----------------|
A||--------4\6-4----|
E||-0-0-0-0---2\4-2-|

E||-----------------------------------------|
B||-----------------------------------------|
G||-----------------------------------------|
D||----------------------6-7h--------6-7h---|
A||------------------6-9h----6---6-9h----6--|
E||-7-7-7-7-7-7-7-7-7---------7-7---------7-|

e||-----------------------------|
B||-----------------------------|
G||-------------6---------6-----|
D||------------8-8-------8-8----|
A||-6-6-6-6-6-9---9-6-6-9---9-6-|
E||-----------------------------|

e||--------------------------------|---------------------------------|
B||--------------------------------|---------------------------------|
G||--------------------------------|---------------------------------|
D||--------------------------------|---------------------------------|
A||-2-2-2-2\4-4-4-4\6-6-6-6--------|---------------------------------|
E||------------------------4-4-4-4-|-7-7-7-7-7-7-7-7-7-7-7-7-7-7-7-7-|

Nick

e||----------|----------|----------|--------------|
B||-4-4-4--4-|-9-9-9--9-|-7-7-7--7-|-9--9--9---9--|
G||-4-4-4--4-|-9-9-9--9-|-8-8-8--8-|-11-11-11--11-|
D||-6-6-6--6-|-9-9-9--9-|-9-9-9--9-|-11-11-11--11-|
A||-6-6-6--6-|-7-7-7--7-|-9-9-9--9-|-11-11-11--11-|  Strumming pattern (X2)
E||----------|----------|----------|--------------| (down,down,up...down)

e||-----------------|-----------------|-----------------|----|[X8]
B||-4-4-4-4-4-4-4-4-|-9-9-9-9-9-9-9-9-|-7-7-7-7-7-7-7-7-|-9--|
G||-4-4-4-6-4-4-4-4-|-9-9-9-9-9-9-9-9-|-8-8-8-8-8-9-9-9-|-11-|
D||-6-6-6-6-6-6-6-6-|-9-9-9-9-9-9-9-9-|-9-9-9-9-9-9-9-9-|-11-|
A||-6-6-6-6-6-6-6-6-|-7-7-7-7-7-7-7-7-|-9-9-9-9-9-9-9-9-|-11-| Just strum(X2)
E||-----------------|-----------------|-----------------|----|

Albert

e||------11-----|-------11----|----12-12-11-11-9-7------7-9h\4-7-|
B||12-12---11-11|12-12---11-11|14-14---------------14-14---------|
G||x--x------11-|x--x------11-|x--x----------------x--x----------|
D||10-10--------|10-10--------|12-12---------------12-12---------|
A||-------------|-------------|----------------------------------| (X1)
E||-------------|-------------|----------------------------------|

Nick (follow Albert)

e||----11^-11-9-7-|----18^-14-16-11-|----12-12-11-11-9-7-|-11-12h-7\9/7-|
B||---------------|-----------------|--------------------|--------------|
G||---------------|-----------------|--------------------|--------------|
D||---------------|-----------------|--------------------|--------------|
A||---------------|-----------------|--------------------|--------------|
E||---------------|-----------------|--------------------|--------------|

e||-----------------------------------------|
B||-----------------------------------------|
G||-----------------------------------------|
D||----------------------6-7h--------6-7h---|
A||------------------6-9h----6---6-9h----6--|
E||-7-7-7-7-7-7-7-7-7---------7-7---------7-|

e||-----------------------------|
B||-----------------------------|
G||-------------6---------6-----|
D||------------8-8-------8-8----|
A||-6-6-6-6-6-9---9-6-6-9---9-6-|
E||-----------------------------|

e||---------------------------------|---------------------------------|
B||---------------------------------|---------------------------------|
G||---------------------------------|---------------------------------|
D||---------------------------------|---------------------------------|
A||-2-2-2-2\4-4-4-4\6-6-6-6\7-7-7-7-|---------------------------------|
E||---------------------------------|-7-7-7-7-7-7-7-7-7-7-7-7-7-7-7-7-|

Nick 

e||----------|----------|----------|--------------|
B||-4-4-4--4-|-9-9-9--9-|-7-7-7--7-|-9--9--9---9--|
G||-4-4-4--4-|-9-9-9--9-|-8-8-8--8-|-11-11-11--11-|
D||-6-6-6--6-|-9-9-9--9-|-9-9-9--9-|-11-11-11--11-|
A||-6-6-6--6-|-7-7-7--7-|-9-9-9--9-|-11-11-11--11-|  Strumming pattern (X2)
E||----------|----------|----------|--------------| (down,down,up...down)

e||-----------------|-----------------|-----------------|----|[X8]
B||-4-4-4-4-4-4-4-4-|-9-9-9-9-9-9-9-9-|-7-7-7-7-7-7-7-7-|-9--|
G||-4-4-4-6-4-4-4-4-|-9-9-9-9-9-9-9-9-|-8-8-8-8-8-9-9-9-|-11-|
D||-6-6-6-6-6-6-6-6-|-9-9-9-9-9-9-9-9-|-9-9-9-9-9-9-9-9-|-11-|
A||-6-6-6-6-6-6-6-6-|-7-7-7-7-7-7-7-7-|-9-9-9-9-9-9-9-9-|-11-| Just strum(X2)
E||-----------------|-----------------|-----------------|----|

Solo by Nick

e||-x-x-x--6-7--6-7-6---6-7-6-7-6---6-7-6-7-6---6\9-7\12-11-----11^11\2\7\|
B||-x-x-x-5---5------5-7---7-----7-5---5-----5-4-----------12-12----------|
G||-x-x-x---------------------------------------------------12------------|
D||-x-x-x-----------------------------------------------------------------|
A||-x-x-x-----------------------------------------------------------------|
E||-x-x-x-----------------------------------------------------------------|

e||11\4-6-7-9\11-9-7-6-4---6-7-6-7-6---6-7-6-7-6---6-7-6-7-6------|
B||---------------------7-5---5-----5-7---7-----7-5---5-----5-4\2-|
G||---------------------------------------------------------------|
D||---------------------------------------------------------------|
A||---------------------------------------------------------------|
E||---------------------------------------------------------------| End Solo.

e||----------|----------|----------|--------------|
B||-4-4-4--4-|-9-9-9--9-|-7-7-7--7-|-9--9--9---9--|
G||-4-4-4--4-|-9-9-9--9-|-8-8-8--8-|-11-11-11--11-|
D||-6-6-6--6-|-9-9-9--9-|-9-9-9--9-|-11-11-11--11-|
A||-6-6-6--6-|-7-7-7--7-|-9-9-9--9-|-11-11-11--11-|  Strumming pattern (X2)
E||----------|----------|----------|--------------| (down,down,up...down)

e||-----------------|-----------------|-----------------|----|[X8]
B||-4-4-4-4-4-4-4-4-|-9-9-9-9-9-9-9-9-|-7-7-7-7-7-7-7-7-|-9--|
G||-4-4-4-6-4-4-4-4-|-9-9-9-9-9-9-9-9-|-8-8-8-8-8-9-9-9-|-11-|
D||-6-6-6-6-6-6-6-6-|-9-9-9-9-9-9-9-9-|-9-9-9-9-9-9-9-9-|-11-|
A||-6-6-6-6-6-6-6-6-|-7-7-7-7-7-7-7-7-|-9-9-9-9-9-9-9-9-|-11-| Just strum(X2)
E||-----------------|-----------------|-----------------|----|

Albert

e||------11-----|-------11----|----12-12-11-11-9-7------7-9h\4-7-|
B||12-12---11-11|12-12---11-11|14-14---------------14-14---------|
G||x--x------11-|x--x------11-|x--x----------------x--x----------|
D||10-10--------|10-10--------|12-12---------------12-12---------|
A||-------------|-------------|----------------------------------| (X1)
E||-------------|-------------|----------------------------------|

Nick (Follow Albert)

e||----11^-11-9-7-|----18^-14-16-11-|----12-12-11-11-9-7-|-11-12h-7\9/7-|
B||---------------|-----------------|--------------------|--------------|
G||---------------|-----------------|--------------------|--------------|
D||---------------|-----------------|--------------------|--------------|
A||---------------|-----------------|--------------------|--------------|
E||---------------|-----------------|--------------------|--------------|

The End, hope this helps a lot.

 
Tap to rate this tab
 
# A B C D E F G H I J K L M N O P Q R S T U V W X Y Z