Song name
# A B C D E F G H I J K L M N O P Q R S T U V W X Y Z

Strokes - Under Cover Of Darkness tab

Excluding the intro, I only have the lead stuff figured out so far. I'll need some 
more time on the rhythm. Can't wait for the new album in March
First tab so sorry if I missed some stuff

Intro
Guitar 1
e|------11-----------|------11-----------|--------12-12-11-11------|
B|-----------11----11|-------------------|--------------------14-12|
G|--------------11---|-----------11----11|-------------------------|
D|9-9----------------|9-9-----------11---|11-11--------------------|
A|9-9----------------|9-9----------------|11-11--------------------|
E|7-7----------------|7-7----------------|9--9---------------------|

e|--------------------------|
B|--------12h14-12-------12-|
G|--------11--------11h13---|
D|11-11---------------------|
A|11-11---------------------|
E|9--9----------------------|

Guitar 2
e|------12---11------|------/19---14-16---|-------16-16--14-14--12-11|
B|--------------14-12|------------------16|--------------------------|
G|-------------------|--------------------|--------------------------|
D|9-9----------------|9-9-----------------|11-11---------------------|
A|9-9----------------|9-9-----------------|11-11---------------------|
E|7-7----------------|7-7-----------------|9--9----------------------|

e|-------------------------|
B|--------16h17-16-------16|
G|--------16--------16h18--|
D|11-11--------------------|
A|11-11--------------------|
E|9--9---------------------|

Verse
Guitar 1

e|---------------|-------------------------------|
B|---------------|-------------------------------|
G|---------------|-------------------------------|
D|---------------|9-------7---------------7------|
A|---------------|-------9--9------------9--9----|
E|7-7-7-7-7-7-7-7|--7-11-----11-7---7-11-----11-7|

e|---------------|---------------------------|
B|---------------|---------------------------|
G|---------------|8------6------------6------|
D|---------------|------8--8---------8--8----|
A|6-6-6-6-6-6-6-6|--6-9-----9-6--6-9-----9--6|
E|---------------|---------------------------|

e|---------------|--------------------------|---------------|---------------|
B|---------------|--------------------------|---------------|---------------|
G|---------------|--------------------------|---------------|---------------|
D|---------------|6------4------------4-----|---------------|---------------|
A|---------------|------6--6---------6--6---|---------------|/6~~~4~~~------|
E|4-4-4-4-4-4-4-4|--4-7-----7-4--4-7-----7-4|0-0-0-0-0-0-0-0|---------4~~~2~|

Repeat the first half, then this thing
e|---------------|---------------|---------------|---------------|
B|---------------|---------------|---------------|---------------|
G|---------------|---------------|---------------|---------------|
D|---------------|---------------|---------------|---------------|
A|2-2-2-2-4-4-4-4|6-6-6-6--------|---------------|---------------|
E|---------------|--------4-4-4-4|7-7-7-7-7-7-7-7|7-7-7-7-7-7-7-7|

Chorus (varies a little each time)
e|---------------|---------------|---------------|---------------|
B|--7---7---7---7|--9---9---9---9|--7---7---7---7|--7---7---7---7|
G|8--8-8--8--8-8-|9--9-9--9--9-9-|8--8-8--8--8-8-|6--6-6--6--6-6-|
D|---------------|---------------|---------------|---------------|
A|---------------|---------------|---------------|---------------|
E|---------------|---------------|---------------|---------------|

Solo
e|--------------------|-----------------------|--------------------|
B|--11-12---11-12-11--|---11-12----11-12-11---|--11-12---11-12-11--|
G|9-------9----------9|11-------11----------11|9-------9----------9|
D|--------------------|-----------------------|--------------------|
A|--------------------|-----------------------|--------------------|
E|--------------------|-----------------------|--------------------|

e|-------------|----------------11-12--11|---7-11-------7-9-11--9-7-------|
B|---11--14--12|17--16\12----12----------|7-------9--11-------------11-9-7|
G|8------------|----------12-------------|--------------------------------|
D|-------------|-------------------------|--------------------------------|
A|-------------|-------------------------|--------------------------------|
E|-------------|-------------------------|--------------------------------|

e|--------------------|-----------------------|--------------------|--------|
B|--11-12---11-12-11--|---11-12----11-12-11---|--11-12---11-12-11--|--------|
G|9-------9----------9|11-------11----------11|9-------9----------9|8~~~6~~~|
D|--------------------|-----------------------|--------------------|--------|
A|--------------------|-----------------------|--------------------|--------|
E|--------------------|-----------------------|--------------------|--------|

Intro x2 (Once w/o guitar 2)
Verse x1
Chorus x4
Verse x1 (Do first half then skip to other part)
Chorus x4
Solo x1
Chorus x4
Outro - Play first bar of intro (Both guitars 1 & 2)


Tap to rate this tab
 
# A B C D E F G H I J K L M N O P Q R S T U V W X Y Z