Song name
# A B C D E F G H I J K L M N O P Q R S T U V W X Y Z

Strokes - Under Cover Of Darkness tab

Be gentle on me, this is my first tabbing. I believe I have it right, had to do it 
through piano and then work the slides in on guitar. I believe this to be correct though. I 
may take the time to tab out the rest in the near future.

 e ---------------------------------------------------------|
 B -----11-12----11-12-11---------11-12-----11-12-11--------|
 G ---9--------9----------9----11--------11----------11-----|
 D ---------------------------------------------------------|
 A ---------------------------------------------------------|
 E ---------------------------------------------------------|

 e ---------------------------------------------------------11-12-11------|
 B -----11-12----11-12-11---------14----14/17-16/12-12---12---------------|
 G ---9--------9----------9--8-16----16---------------13------------------|
 D -----------------------------------------------------------------------|
 A -----------------------------------------------------------------------|
 E -----------------------------------------------------------------------|

 e ---------------------------------------------------------|
 B ---------13/16----------14-16--14------------------------|
 G 11-11/16-------13-15-16-----------16-15-13-11------------|
 D ---------------------------------------------------------|
 A ---------------------------------------------------------|
 E ---------------------------------------------------------|

 e ---------------------------------------------------------|
 B -----11-12----11-12-11---------11-12-----11-12-11--------|
 G ---9--------9----------9----11--------11----------11-----|
 D ---------------------------------------------------------|
 A ---------------------------------------------------------|
 E ---------------------------------------------------------|

 e -------------------------------------------------------------|
 B -----11-12----11-12-11---------------------------------------|
 G ---9--------9----------9---8-8--6----------------------------|
 D -------------------------------------------------------------|
 A -------------------------------------------------------------|
 E -------------------------------------------------------------|


I don't own The Strokes blah blah blah disclaimer
Tap to rate this tab
 
# A B C D E F G H I J K L M N O P Q R S T U V W X Y Z