Song name
# A B C D E F G H I J K L M N O P Q R S T U V W X Y Z

Strokes - Under Cover Of Darkness tab

-------------------------------------------------------------------------------
			     Under Cover Of Darkness - The Strokes
-------------------------------------------------------------------------------
Tabbed by: Ian Kelly
Email: wellnowthenmardybum@gmail.com

Tuning: Standard

Please leave comments and suggestions for the benefit of other Strokes fans


INTRO

   B                         C#m
e|-77-11--------77-11--------9-9--1212-1111-9-----9-9---------------|
B|-77---11--11--77---11--11--9-9--------------12--9-9--11h12p11--11-|
G|-88-----11----88-----11----9-9------------------9-9--11------11---|
D|-99-----------99-----------1111-----------------1111--------------|
A|------------------------------------------------------------------|
E|------------------------------------------------------------------|

e|-77-12-11-9-----77-17b19--16----9-9--1212-1111-9-7--9-9----------------|
B|-77---------12--88------19--16--9-9--1212-1212-9-7--9-9--16h17p16-1416-|
G|-88-------------88--------------9-9-----------------9-9--16-------1515-|
D|-99-------------99--------------1111----------------1111---------------|
A|-----------------------------------------------------------------------|
E|-----------------------------------------------------------------------|


VERSE 

These are muted powerchords. Play each for roughly 5 seconds. Listen and youll quickly get it.

0:20-0:47

   B > D# > G#m > E
e|-----------------------------------|
B|-----------------------------------|
G|-----------------------------------|
D|-----8----------9------------------|
A|-9---6----6-----7------------------|
E|-7--------4--------11-9-4-2--------|

  We got the right...
E|--------------------------------------|
B|--------------------------------------|
G|--------------------------------------|
D|--------6666--8888--------------------|
A|--2222--4444--6666--4444--------------|
E|--0000--------------2222--------------|

0:50-
  I wont just be a puppet...
e|--------------------------------------|
B|--------------------------------------|
G|--------------------------------------|
D|--------------------------------------|
A|--99999-------------------------------|
E|--77777-------------------------------|



CHORUS

Chords: B > E > B > F#

    B           E              B            F#
e|----------------------------------------------------------|
B|----------------------------------------------------------|
G|-8-11-88-11-x2-9-11-99-11-x2--8-11-88-11-x2-8-11-88-11-X2-|
D|-9----99-------9----99--------9----99-------8----88-------|
A|----------------------------------------------------------|
E|----------------------------------------------------------|
Tap to rate this tab
 
# A B C D E F G H I J K L M N O P Q R S T U V W X Y Z