Song name
# A B C D E F G H I J K L M N O P Q R S T U V W X Y Z

Strokes - Under Cover Of Darkness tab

                      THE STROKES
			                         Angles
                  Under Cover of Darkness

My first tab on UG. I'd like to thank all the other people who have made Strokes tabs
for me to learn when I was first learning guitar. Enjoy!

Transcribed by Tyler G. Brown
Email: tbrown8890@aim.com

Standard Tuning
e|-------------------------------------------------------|
B|-16--16--16--------------------------------------------|
G|-16--16------16------16------x2------------------------|
D|-16--16----------16------------------------------------|
A|-14--14------------------------------------------------|
E|-------------------------------------------------------|

e|-------------------------------------------------------|
B|-17--17--17-17---16-16---------------------------------|
G|-18--18-------------------18--16-----------------------| Entire thing x2
D|-18--18------------------------------------------------|
A|-16--16------------------------------------------------|
E|-------------------------------------------------------|

e|-------------------------------------------------------|
B|-17--17------------------------------------------------|
G|-18--18---16h18p16--------16---------------------------|
D|-18--18---16-----------18------------------------------|
A|-16--16------------------------------------------------|
E|-------------------------------------------------------|
Tap to rate this tab
 
# A B C D E F G H I J K L M N O P Q R S T U V W X Y Z