Strokes - Under Cover Of Darkness tab

Here's the first part of Under Cover Darkness, The Strokes new song released today.
It's not perfect of course, but it sounds ok. (have fun playing it!)

Tuning: Standard

Guitar 1

e|-----11----------------11----------------12-12--11-11--9----(9)-(9)---|
B|--------11----12----------11----12-----------------------12-----------|
G|-8-8-------11-----9-8--------11-----9--9---------------------9---9----|
D|-9-9--------------9-9---------------11-11--------------------11--11---|
A|-9-9--------------9-9---------------11-11--------------------11--11---|
E|-7-7--------------7-7---------------9--9---------------------9---9----|

              
              
e|-7h9p7~---4--7----|
B|-7----~---5--7----|
G|------------------|
D|------------------| x2
A|------------------|
E|------------------|

Guitar 2
comes in at the second time.

e|---/11--6-9-7---------17b19r-15-17----------12-12--11-11--9--------------|
B|----------------------------------17-----------------------12------------|
G|-------------------------------------------------------------------------|
D|-------------------------------------------------------------------------|
A|-------------------------------------------------------------------------|
E|-------------------------------------------------------------------------|

e|-7h9p7~-----------|
B|-7----~--7/9h12---|
G|------------------|
D|------------------| x2
A|------------------|
E|------------------|

I'll add the rest of the song in the future.

By: Elgeno.
Tap to rate this tab
 
# A B C D E F G H I J K L M N O P Q R S T U V W X Y Z